  0
SECTION
  2
HEADER
  9
$ACADVER
  1
AC1018
  9
$ACADMAINTVER
 70
     0
  9
$DWGCODEPAGE
  3
ANSI_1250
  9
$INSBASE
 10
0.0
 20
0.0
 30
0.0
  9
$EXTMIN
 10
-927.9778
 20
-549.4181
 30
0.0
  9
$EXTMAX
 10
882.9584
 20
756.9829
 30
0.0
  9
$LIMMIN
 10
0.0
 20
0.0
  9
$LIMMAX
 10
12.0
 20
9.0
  9
$ORTHOMODE
 70
     0
  9
$REGENMODE
 70
     1
  9
$FILLMODE
 70
     1
  9
$QTEXTMODE
 70
     0
  9
$MIRRTEXT
 70
     1
  9
$LTSCALE
 40
1.0
  9
$ATTMODE
 70
     1
  9
$TEXTSIZE
 40
0.2
  9
$TRACEWID
 40
0.05
  9
$TEXTSTYLE
  7
Standard
  9
$CLAYER
  8
0
  9
$CELTYPE
  6
ByLayer
  9
$CECOLOR
 62
   256
  9
$CELTSCALE
 40
1.0
  9
$DISPSILH
 70
     0
  9
$DIMSCALE
 40
1.0
  9
$DIMASZ
 40
0.18
  9
$DIMEXO
 40
0.0625
  9
$DIMDLI
 40
0.38
  9
$DIMRND
 40
0.0
  9
$DIMDLE
 40
0.0
  9
$DIMEXE
 40
0.18
  9
$DIMTP
 40
0.0
  9
$DIMTM
 40
0.0
  9
$DIMTXT
 40
0.18
  9
$DIMCEN
 40
0.09
  9
$DIMTSZ
 40
0.0
  9
$DIMTOL
 70
     0
  9
$DIMLIM
 70
     0
  9
$DIMTIH
 70
     1
  9
$DIMTOH
 70
     1
  9
$DIMSE1
 70
     0
  9
$DIMSE2
 70
     0
  9
$DIMTAD
 70
     0
  9
$DIMZIN
 70
     0
  9
$DIMBLK
  1

  9
$DIMASO
 70
     1
  9
$DIMSHO
 70
     1
  9
$DIMPOST
  1

  9
$DIMAPOST
  1

  9
$DIMALT
 70
     0
  9
$DIMALTD
 70
     2
  9
$DIMALTF
 40
25.4
  9
$DIMLFAC
 40
1.0
  9
$DIMTOFL
 70
     0
  9
$DIMTVP
 40
0.0
  9
$DIMTIX
 70
     0
  9
$DIMSOXD
 70
     0
  9
$DIMSAH
 70
     0
  9
$DIMBLK1
  1

  9
$DIMBLK2
  1

  9
$DIMSTYLE
  2
Standard
  9
$DIMCLRD
 70
     0
  9
$DIMCLRE
 70
     0
  9
$DIMCLRT
 70
     0
  9
$DIMTFAC
 40
1.0
  9
$DIMGAP
 40
0.09
  9
$DIMJUST
 70
     0
  9
$DIMSD1
 70
     0
  9
$DIMSD2
 70
     0
  9
$DIMTOLJ
 70
     1
  9
$DIMTZIN
 70
     0
  9
$DIMALTZ
 70
     0
  9
$DIMALTTZ
 70
     0
  9
$DIMUPT
 70
     0
  9
$DIMDEC
 70
     4
  9
$DIMTDEC
 70
     4
  9
$DIMALTU
 70
     2
  9
$DIMALTTD
 70
     2
  9
$DIMTXSTY
  7
Standard
  9
$DIMAUNIT
 70
     0
  9
$DIMADEC
 70
     0
  9
$DIMALTRND
 40
0.0
  9
$DIMAZIN
 70
     0
  9
$DIMDSEP
 70
    46
  9
$DIMATFIT
 70
     3
  9
$DIMFRAC
 70
     0
  9
$DIMLDRBLK
  1

  9
$DIMLUNIT
 70
     2
  9
$DIMLWD
 70
    -2
  9
$DIMLWE
 70
    -2
  9
$DIMTMOVE
 70
     0
  9
$LUNITS
 70
     2
  9
$LUPREC
 70
     4
  9
$SKETCHINC
 40
0.1
  9
$FILLETRAD
 40
0.5
  9
$AUNITS
 70
     0
  9
$AUPREC
 70
     0
  9
$MENU
  1
.
  9
$ELEVATION
 40
0.0
  9
$PELEVATION
 40
0.0
  9
$THICKNESS
 40
0.0
  9
$LIMCHECK
 70
     0
  9
$CHAMFERA
 40
0.5
  9
$CHAMFERB
 40
0.5
  9
$CHAMFERC
 40
1.0
  9
$CHAMFERD
 40
0.0
  9
$SKPOLY
 70
     0
  9
$TDCREATE
 40
2456703.959530417
  9
$TDUCREATE
 40
2456703.91786375
  9
$TDUPDATE
 40
2456703.959530428
  9
$TDUUPDATE
 40
2456703.917863762
  9
$TDINDWG
 40
0.0000000116
  9
$TDUSRTIMER
 40
0.0000000116
  9
$USRTIMER
 70
     1
  9
$ANGBASE
 50
0.0
  9
$ANGDIR
 70
     0
  9
$PDMODE
 70
     0
  9
$PDSIZE
 40
0.0
  9
$PLINEWID
 40
0.0
  9
$SPLFRAME
 70
     0
  9
$SPLINETYPE
 70
     6
  9
$SPLINESEGS
 70
     8
  9
$HANDSEED
  5
A0
  9
$SURFTAB1
 70
     6
  9
$SURFTAB2
 70
     6
  9
$SURFTYPE
 70
     6
  9
$SURFU
 70
     6
  9
$SURFV
 70
     6
  9
$UCSBASE
  2

  9
$UCSNAME
  2

  9
$UCSORG
 10
0.0
 20
0.0
 30
0.0
  9
$UCSXDIR
 10
1.0
 20
0.0
 30
0.0
  9
$UCSYDIR
 10
0.0
 20
1.0
 30
0.0
  9
$UCSORTHOREF
  2

  9
$UCSORTHOVIEW
 70
     0
  9
$UCSORGTOP
 10
0.0
 20
0.0
 30
0.0
  9
$UCSORGBOTTOM
 10
0.0
 20
0.0
 30
0.0
  9
$UCSORGLEFT
 10
0.0
 20
0.0
 30
0.0
  9
$UCSORGRIGHT
 10
0.0
 20
0.0
 30
0.0
  9
$UCSORGFRONT
 10
0.0
 20
0.0
 30
0.0
  9
$UCSORGBACK
 10
0.0
 20
0.0
 30
0.0
  9
$PUCSBASE
  2

  9
$PUCSNAME
  2

  9
$PUCSORG
 10
0.0
 20
0.0
 30
0.0
  9
$PUCSXDIR
 10
1.0
 20
0.0
 30
0.0
  9
$PUCSYDIR
 10
0.0
 20
1.0
 30
0.0
  9
$PUCSORTHOREF
  2

  9
$PUCSORTHOVIEW
 70
     0
  9
$PUCSORGTOP
 10
0.0
 20
0.0
 30
0.0
  9
$PUCSORGBOTTOM
 10
0.0
 20
0.0
 30
0.0
  9
$PUCSORGLEFT
 10
0.0
 20
0.0
 30
0.0
  9
$PUCSORGRIGHT
 10
0.0
 20
0.0
 30
0.0
  9
$PUCSORGFRONT
 10
0.0
 20
0.0
 30
0.0
  9
$PUCSORGBACK
 10
0.0
 20
0.0
 30
0.0
  9
$USERI1
 70
     0
  9
$USERI2
 70
     0
  9
$USERI3
 70
     0
  9
$USERI4
 70
     0
  9
$USERI5
 70
     0
  9
$USERR1
 40
0.0
  9
$USERR2
 40
0.0
  9
$USERR3
 40
0.0
  9
$USERR4
 40
0.0
  9
$USERR5
 40
0.0
  9
$WORLDVIEW
 70
     1
  9
$SHADEDGE
 70
     3
  9
$SHADEDIF
 70
    70
  9
$TILEMODE
 70
     1
  9
$MAXACTVP
 70
    64
  9
$PINSBASE
 10
0.0
 20
0.0
 30
0.0
  9
$PLIMCHECK
 70
     0
  9
$PEXTMIN
 10
1.000000000000000E+20
 20
1.000000000000000E+20
 30
1.000000000000000E+20
  9
$PEXTMAX
 10
-1.000000000000000E+20
 20
-1.000000000000000E+20
 30
-1.000000000000000E+20
  9
$PLIMMIN
 10
0.0
 20
0.0
  9
$PLIMMAX
 10
12.0
 20
9.0
  9
$UNITMODE
 70
     0
  9
$VISRETAIN
 70
     1
  9
$PLINEGEN
 70
     0
  9
$PSLTSCALE
 70
     1
  9
$TREEDEPTH
 70
  3020
  9
$CMLSTYLE
  2
Standard
  9
$CMLJUST
 70
     0
  9
$CMLSCALE
 40
1.0
  9
$PROXYGRAPHICS
 70
     1
  9
$MEASUREMENT
 70
     0
  9
$CELWEIGHT
370
    -1
  9
$ENDCAPS
280
     0
  9
$JOINSTYLE
280
     0
  9
$LWDISPLAY
290
     0
  9
$INSUNITS
 70
     4
  9
$HYPERLINKBASE
  1

  9
$STYLESHEET
  1

  9
$XEDIT
290
     1
  9
$CEPSNTYPE
380
     0
  9
$PSTYLEMODE
290
     1
  9
$FINGERPRINTGUID
  2
{C08F000F-45FC-42A6-B27D-4055C166412E}
  9
$VERSIONGUID
  2
{FAEB1C32-E019-11D5-929B-00C0DF256EC4}
  9
$EXTNAMES
290
     1
  9
$PSVPSCALE
 40
0.0
  9
$OLESTARTUP
290
     0
  9
$SORTENTS
280
   127
  9
$INDEXCTL
280
     0
  9
$HIDETEXT
280
     1
  9
$XCLIPFRAME
290
     0
  9
$HALOGAP
280
     0
  9
$OBSCOLOR
 70
   257
  9
$OBSLTYPE
280
     0
  9
$INTERSECTIONDISPLAY
280
     0
  9
$INTERSECTIONCOLOR
 70
   257
  9
$DIMASSOC
280
     2
  9
$PROJECTNAME
  1

  0
ENDSEC
  0
SECTION
  2
CLASSES
  0
CLASS
  1
ACDBDICTIONARYWDFLT
  2
AcDbDictionaryWithDefault
  3
ObjectDBX Classes
 90
        0
 91
        3
280
     0
281
     0
  0
CLASS
  1
VISUALSTYLE
  2
AcDbVisualStyle
  3
ObjectDBX Classes
 90
     4095
 91
        3
280
     0
281
     0
  0
CLASS
  1
SCALE
  2
AcDbScale
  3
ObjectDBX Classes
 90
     1153
 91
        3
280
     0
281
     0
  0
ENDSEC
  0
SECTION
  2
TABLES
  0
TABLE
  2
VPORT
  5
8
330
0
100
AcDbSymbolTable
 70
     1
  0
VPORT
  5
29
330
8
100
AcDbSymbolTableRecord
100
AcDbViewportTableRecord
  2
*Active
 70
     0
 10
0.0
 20
0.0
 11
1.0
 21
1.0
 12
10.42990654205607
 22
4.5
 13
0.0
 23
0.0
 14
0.5
 24
0.5
 15
0.5
 25
0.5
 16
0.0
 26
0.0
 36
1.0
 17
0.0
 27
0.0
 37
0.0
 40
9.0
 41
1.972972972850329
 42
50.0
 43
0.0
 44
0.0
 50
0.0
 51
0.0
 71
     0
 72
   100
 73
     1
 74
     3
 75
     0
 76
     0
 77
     0
 78
     0
281
     0
 65
     1
110
0.0
120
0.0
130
0.0
111
1.0
121
0.0
131
0.0
112
0.0
122
1.0
132
0.0
 79
     0
146
0.0
  0
ENDTAB
  0
TABLE
  2
LTYPE
  5
5
330
0
100
AcDbSymbolTable
 70
     1
  0
LTYPE
  5
14
330
5
100
AcDbSymbolTableRecord
100
AcDbLinetypeTableRecord
  2
ByBlock
 70
     0
  3

 72
    65
 73
     0
 40
0.0
  0
LTYPE
  5
15
330
5
100
AcDbSymbolTableRecord
100
AcDbLinetypeTableRecord
  2
ByLayer
 70
     0
  3

 72
    65
 73
     0
 40
0.0
  0
LTYPE
  5
16
330
5
100
AcDbSymbolTableRecord
100
AcDbLinetypeTableRecord
  2
Continuous
 70
     0
  3
Solid line
 72
    65
 73
     0
 40
0.0
  0
ENDTAB
  0
TABLE
  2
LAYER
  5
2
330
0
100
AcDbSymbolTable
 70
     2
  0
LAYER
  5
10
330
2
100
AcDbSymbolTableRecord
100
AcDbLayerTableRecord
  2
0
 70
     0
 62
     7
  6
Continuous
370
    -3
390
F
  0
LAYER
  5
5E
330
2
100
AcDbSymbolTableRecord
100
AcDbLayerTableRecord
  2
przekroje wyczyszczone
 70
     0
 62
     7
  6
Continuous
370
    -3
390
F
  0
ENDTAB
  0
TABLE
  2
STYLE
  5
3
330
0
100
AcDbSymbolTable
 70
    21
  0
STYLE
  5
11
330
3
100
AcDbSymbolTableRecord
100
AcDbTextStyleTableRecord
  2
Standard
 70
     0
 40
0.0
 41
1.0
 50
0.0
 71
     0
 42
0.2
  3
txt
  4

  0
STYLE
  5
76
330
3
100
AcDbSymbolTableRecord
100
AcDbTextStyleTableRecord
  2
0
 70
     0
 40
1.0
 41
1.0
 50
0.0
 71
     0
 42
1.0
  3
Arial
  4

1001
ACAD
1000
Arial
1071
 33554466
  0
STYLE
  5
78
330
3
100
AcDbSymbolTableRecord
100
AcDbTextStyleTableRecord
  2
1
 70
     0
 40
1.0
 41
1.0
 50
0.0
 71
     0
 42
1.0
  3
Arial
  4

1001
ACAD
1000
Arial
1071
 33554466
  0
STYLE
  5
7A
330
3
100
AcDbSymbolTableRecord
100
AcDbTextStyleTableRecord
  2
2
 70
     0
 40
1.0
 41
1.0
 50
0.0
 71
     0
 42
1.0
  3
Arial
  4

1001
ACAD
1000
Arial
1071
 33554466
  0
STYLE
  5
7C
330
3
100
AcDbSymbolTableRecord
100
AcDbTextStyleTableRecord
  2
3
 70
     0
 40
1.0
 41
1.0
 50
0.0
 71
     0
 42
1.0
  3
Arial
  4

1001
ACAD
1000
Arial
1071
 33554466
  0
STYLE
  5
7E
330
3
100
AcDbSymbolTableRecord
100
AcDbTextStyleTableRecord
  2
4
 70
     0
 40
1.0
 41
1.0
 50
0.0
 71
     0
 42
1.0
  3
Arial
  4

1001
ACAD
1000
Arial
1071
 33554466
  0
STYLE
  5
80
330
3
100
AcDbSymbolTableRecord
100
AcDbTextStyleTableRecord
  2
5
 70
     0
 40
1.0
 41
1.0
 50
0.0
 71
     0
 42
1.0
  3
Arial
  4

1001
ACAD
1000
Arial
1071
 33554466
  0
STYLE
  5
82
330
3
100
AcDbSymbolTableRecord
100
AcDbTextStyleTableRecord
  2
6
 70
     0
 40
1.0
 41
1.0
 50
0.0
 71
     0
 42
1.0
  3
Arial
  4

1001
ACAD
1000
Arial
1071
 33554466
  0
STYLE
  5
84
330
3
100
AcDbSymbolTableRecord
100
AcDbTextStyleTableRecord
  2
7
 70
     0
 40
1.0
 41
1.0
 50
0.0
 71
     0
 42
1.0
  3
Arial
  4

1001
ACAD
1000
Arial
1071
 33554466
  0
STYLE
  5
86
330
3
100
AcDbSymbolTableRecord
100
AcDbTextStyleTableRecord
  2
8
 70
     0
 40
1.0
 41
1.0
 50
0.0
 71
     0
 42
1.0
  3
Arial
  4

1001
ACAD
1000
Arial
1071
 33554466
  0
STYLE
  5
88
330
3
100
AcDbSymbolTableRecord
100
AcDbTextStyleTableRecord
  2
9
 70
     0
 40
1.0
 41
1.0
 50
0.0
 71
     0
 42
1.0
  3
Arial
  4

1001
ACAD
1000
Arial
1071
 33554466
  0
STYLE
  5
8A
330
3
100
AcDbSymbolTableRecord
100
AcDbTextStyleTableRecord
  2
10
 70
     0
 40
1.0
 41
1.0
 50
0.0
 71
     0
 42
1.0
  3
Arial
  4

1001
ACAD
1000
Arial
1071
 33554466
  0
STYLE
  5
8C
330
3
100
AcDbSymbolTableRecord
100
AcDbTextStyleTableRecord
  2
11
 70
     0
 40
1.0
 41
1.0
 50
0.0
 71
     0
 42
1.0
  3
Arial
  4

1001
ACAD
1000
Arial
1071
 33554466
  0
STYLE
  5
8E
330
3
100
AcDbSymbolTableRecord
100
AcDbTextStyleTableRecord
  2
12
 70
     0
 40
1.0
 41
1.0
 50
0.0
 71
     0
 42
1.0
  3
Arial
  4

1001
ACAD
1000
Arial
1071
 33554466
  0
STYLE
  5
90
330
3
100
AcDbSymbolTableRecord
100
AcDbTextStyleTableRecord
  2
13
 70
     0
 40
1.0
 41
1.0
 50
0.0
 71
     0
 42
1.0
  3
Arial
  4

1001
ACAD
1000
Arial
1071
 33554466
  0
STYLE
  5
92
330
3
100
AcDbSymbolTableRecord
100
AcDbTextStyleTableRecord
  2
14
 70
     0
 40
1.0
 41
1.0
 50
0.0
 71
     0
 42
1.0
  3
Arial
  4

1001
ACAD
1000
Arial
1071
 33554466
  0
STYLE
  5
94
330
3
100
AcDbSymbolTableRecord
100
AcDbTextStyleTableRecord
  2
15
 70
     0
 40
1.0
 41
1.0
 50
0.0
 71
     0
 42
1.0
  3
Arial
  4

1001
ACAD
1000
Arial
1071
 33554466
  0
STYLE
  5
96
330
3
100
AcDbSymbolTableRecord
100
AcDbTextStyleTableRecord
  2
16
 70
     0
 40
1.0
 41
1.0
 50
0.0
 71
     0
 42
1.0
  3
Arial
  4

1001
ACAD
1000
Arial
1071
 33554466
  0
STYLE
  5
98
330
3
100
AcDbSymbolTableRecord
100
AcDbTextStyleTableRecord
  2
17
 70
     0
 40
1.0
 41
1.0
 50
0.0
 71
     0
 42
1.0
  3
Arial
  4

1001
ACAD
1000
Arial
1071
       34
  0
STYLE
  5
9A
330
3
100
AcDbSymbolTableRecord
100
AcDbTextStyleTableRecord
  2
18
 70
     0
 40
1.0
 41
1.0
 50
0.0
 71
     0
 42
1.0
  3
Arial
  4

1001
ACAD
1000
Arial
1071
       34
  0
STYLE
  5
9C
330
3
100
AcDbSymbolTableRecord
100
AcDbTextStyleTableRecord
  2
19
 70
     0
 40
1.0
 41
1.0
 50
0.0
 71
     0
 42
1.0
  3
Arial
  4

1001
ACAD
1000
Arial
1071
       34
  0
ENDTAB
  0
TABLE
  2
VIEW
  5
6
330
0
100
AcDbSymbolTable
 70
     0
  0
ENDTAB
  0
TABLE
  2
UCS
  5
7
330
0
100
AcDbSymbolTable
 70
     0
  0
ENDTAB
  0
TABLE
  2
APPID
  5
9
330
0
100
AcDbSymbolTable
 70
     2
  0
APPID
  5
12
330
9
100
AcDbSymbolTableRecord
100
AcDbRegAppTableRecord
  2
ACAD
 70
     0
  0
APPID
  5
5D
330
9
100
AcDbSymbolTableRecord
100
AcDbRegAppTableRecord
  2
ODA
 70
     0
  0
ENDTAB
  0
TABLE
  2
DIMSTYLE
  5
A
330
0
100
AcDbSymbolTable
 70
     1
100
AcDbDimStyleTable
  0
DIMSTYLE
105
27
330
A
100
AcDbSymbolTableRecord
100
AcDbDimStyleTableRecord
  2
Standard
 70
     0
340
11
  0
ENDTAB
  0
TABLE
  2
BLOCK_RECORD
  5
1
330
0
100
AcDbSymbolTable
 70
     1
  0
BLOCK_RECORD
  5
1F
330
1
100
AcDbSymbolTableRecord
100
AcDbBlockTableRecord
  2
*Model_Space
340
22
  0
BLOCK_RECORD
  5
1B
330
1
100
AcDbSymbolTableRecord
100
AcDbBlockTableRecord
  2
*Paper_Space
340
1E
  0
BLOCK_RECORD
  5
23
330
1
100
AcDbSymbolTableRecord
100
AcDbBlockTableRecord
  2
*Paper_Space0
340
26
  0
ENDTAB
  0
ENDSEC
  0
SECTION
  2
BLOCKS
  0
BLOCK
  5
20
330
1F
100
AcDbEntity
  8
0
100
AcDbBlockBegin
  2
*Model_Space
 70
     0
 10
0.0
 20
0.0
 30
0.0
  3
*Model_Space
  1

  0
ENDBLK
  5
21
330
1F
100
AcDbEntity
  8
0
100
AcDbBlockEnd
  0
BLOCK
  5
1C
330
1B
100
AcDbEntity
 67
     1
  8
0
100
AcDbBlockBegin
  2
*Paper_Space
 70
     0
 10
0.0
 20
0.0
 30
0.0
  3
*Paper_Space
  1

  0
ENDBLK
  5
1D
330
1B
100
AcDbEntity
 67
     1
  8
0
100
AcDbBlockEnd
  0
BLOCK
  5
24
330
23
100
AcDbEntity
  8
0
100
AcDbBlockBegin
  2
*Paper_Space0
 70
     0
 10
0.0
 20
0.0
 30
0.0
  3
*Paper_Space0
  1

  0
ENDBLK
  5
25
330
23
100
AcDbEntity
  8
0
100
AcDbBlockEnd
  0
ENDSEC
  0
SECTION
  2
ENTITIES
  0
SPLINE
  5
5F
330
1F
100
AcDbEntity
  8
przekroje wyczyszczone
 62
     1
370
     9
100
AcDbSpline
210
0.0
220
0.0
230
1.0
 70
    24
 71
     3
 72
     8
 73
     4
 74
     0
 42
0.0000000001
 43
0.0000000001
 40
0.0
 40
0.0
 40
0.0
 40
0.0
 40
1.0
 40
1.0
 40
1.0
 40
1.0
 10
-828.1074
 20
-171.0957
 30
0.0
 10
-828.1074
 20
-171.0957
 30
0.0
 10
792.9675
 20
-171.0957
 30
0.0
 10
792.9675
 20
-171.0957
 30
0.0
  0
SPLINE
  5
60
330
1F
100
AcDbEntity
  8
przekroje wyczyszczone
 62
     3
370
     9
100
AcDbSpline
210
0.0
220
0.0
230
1.0
 70
    24
 71
     3
 72
     8
 73
     4
 74
     0
 42
0.0000000001
 43
0.0000000001
 40
0.0
 40
0.0
 40
0.0
 40
0.0
 40
1.0
 40
1.0
 40
1.0
 40
1.0
 10
-593.3493
 20
-431.0955
 30
0.0
 10
-593.3493
 20
-431.0955
 30
0.0
 10
515.8761
 20
-431.0955
 30
0.0
 10
515.8761
 20
-431.0955
 30
0.0
  0
SPLINE
  5
61
330
1F
100
AcDbEntity
  8
przekroje wyczyszczone
 62
   142
370
     9
100
AcDbSpline
210
0.0
220
0.0
230
1.0
 70
    24
 71
     3
 72
     8
 73
     4
 74
     0
 42
0.0000000001
 43
0.0000000001
 40
0.0
 40
0.0
 40
0.0
 40
0.0
 40
1.0
 40
1.0
 40
1.0
 40
1.0
 10
-917.3474
 20
-291.0956
 30
0.0
 10
-917.3474
 20
-291.0956
 30
0.0
 10
882.925
 20
-291.0956
 30
0.0
 10
882.925
 20
-291.0956
 30
0.0
  0
SPLINE
  5
62
330
1F
100
AcDbEntity
  8
przekroje wyczyszczone
370
     9
100
AcDbSpline
210
0.0
220
0.0
230
1.0
 70
     8
 71
     3
 72
    80
 73
    76
 74
     0
 42
0.0000000001
 43
0.0000000001
 40
0.0
 40
0.0
 40
0.0
 40
0.0
 40
0.0526315789473684
 40
0.0526315789473684
 40
0.0526315789473684
 40
0.0526315789473684
 40
0.1052631578947368
 40
0.1052631578947368
 40
0.1052631578947368
 40
0.1052631578947368
 40
0.1578947368421053
 40
0.1578947368421053
 40
0.1578947368421053
 40
0.1578947368421053
 40
0.2105263157894737
 40
0.2105263157894737
 40
0.2105263157894737
 40
0.2105263157894737
 40
0.2631578947368421
 40
0.2631578947368421
 40
0.2631578947368421
 40
0.2631578947368421
 40
0.3157894736842105
 40
0.3157894736842105
 40
0.3157894736842105
 40
0.3157894736842105
 40
0.3684210526315789
 40
0.3684210526315789
 40
0.3684210526315789
 40
0.3684210526315789
 40
0.4210526315789473
 40
0.4210526315789473
 40
0.4210526315789473
 40
0.4210526315789473
 40
0.4736842105263158
 40
0.4736842105263158
 40
0.4736842105263158
 40
0.4736842105263158
 40
0.5263157894736842
 40
0.5263157894736842
 40
0.5263157894736842
 40
0.5263157894736842
 40
0.5789473684210527
 40
0.5789473684210527
 40
0.5789473684210527
 40
0.5789473684210527
 40
0.631578947368421
 40
0.631578947368421
 40
0.631578947368421
 40
0.631578947368421
 40
0.6842105263157894
 40
0.6842105263157894
 40
0.6842105263157894
 40
0.6842105263157894
 40
0.7368421052631577
 40
0.7368421052631577
 40
0.7368421052631577
 40
0.7368421052631577
 40
0.7894736842105261
 40
0.7894736842105261
 40
0.7894736842105261
 40
0.7894736842105261
 40
0.8421052631578945
 40
0.8421052631578945
 40
0.8421052631578945
 40
0.8421052631578945
 40
0.8947368421052628
 40
0.8947368421052628
 40
0.8947368421052628
 40
0.8947368421052628
 40
0.9473684210526312
 40
0.9473684210526312
 40
0.9473684210526312
 40
0.9473684210526312
 40
1.0
 40
1.0
 40
1.0
 40
1.0
 10
1.022
 20
-317.0652
 30
0.0
 10
19.6039
 20
-324.5302
 30
0.0
 10
38.2172
 20
-331.9177
 30
0.0
 10
56.7677
 20
-339.4603
 30
0.0
 10
56.7677
 20
-339.4603
 30
0.0
 10
76.4423
 20
-347.46
 30
0.0
 10
96.084
 20
-355.5418
 30
0.0
 10
115.6969
 20
-363.692
 30
0.0
 10
115.6969
 20
-363.692
 30
0.0
 10
136.4153
 20
-372.3015
 30
0.0
 10
157.0998
 20
-380.9932
 30
0.0
 10
177.761
 20
-389.7394
 30
0.0
 10
177.761
 20
-389.7394
 30
0.0
 10
197.0925
 20
-397.9228
 30
0.0
 10
216.4003
 20
-406.1633
 30
0.0
 10
235.6745
 20
-414.4808
 30
0.0
 10
235.6745
 20
-414.4808
 30
0.0
 10
251.8853
 20
-421.4763
 30
0.0
 10
268.0711
 20
-428.5314
 30
0.0
 10
284.2159
 20
-435.6784
 30
0.0
 10
284.2159
 20
-435.6784
 30
0.0
 10
297.3229
 20
-441.4806
 30
0.0
 10
310.3346
 20
-447.4967
 30
0.0
 10
323.4286
 20
-453.3282
 30
0.0
 10
323.4286
 20
-453.3282
 30
0.0
 10
333.9688
 20
-458.0223
 30
0.0
 10
344.4923
 20
-462.7586
 30
0.0
 10
355.1184
 20
-467.2551
 30
0.0
 10
355.1184
 20
-467.2551
 30
0.0
 10
363.4302
 20
-470.7723
 30
0.0
 10
371.7909
 20
-474.182
 30
0.0
 10
380.2356
 20
-477.367
 30
0.0
 10
380.2356
 20
-477.367
 30
0.0
 10
386.3582
 20
-479.6762
 30
0.0
 10
392.5968
 20
-481.6671
 30
0.0
 10
398.8059
 20
-483.7323
 30
0.0
 10
398.8059
 20
-483.7323
 30
0.0
 10
402.9657
 20
-485.1159
 30
0.0
 10
407.1626
 20
-486.3862
 30
0.0
 10
411.341
 20
-487.713
 30
0.0
 10
411.341
 20
-487.713
 30
0.0
 10
413.574
 20
-488.4221
 30
0.0
 10
415.8067
 20
-489.133
 30
0.0
 10
418.0404
 20
-489.8405
 30
0.0
 10
418.0404
 20
-489.8405
 30
0.0
 10
418.4504
 20
-489.9704
 30
0.0
 10
418.8549
 20
-490.1215
 30
0.0
 10
419.2724
 20
-490.2256
 30
0.0
 10
419.2724
 20
-490.2256
 30
0.0
 10
419.3073
 20
-490.2343
 30
0.0
 10
419.3346
 20
-490.1891
 30
0.0
 10
419.3657
 20
-490.171
 30
0.0
 10
419.3657
 20
-490.171
 30
0.0
 10
419.4332
 20
-490.1315
 30
0.0
 10
419.501
 20
-490.092
 30
0.0
 10
419.5685
 20
-490.0525
 30
0.0
 10
419.5685
 20
-490.0525
 30
0.0
 10
419.6654
 20
-489.9959
 30
0.0
 10
419.7625
 20
-489.9391
 30
0.0
 10
419.8594
 20
-489.8824
 30
0.0
 10
419.8594
 20
-489.8824
 30
0.0
 10
419.931
 20
-489.8406
 30
0.0
 10
420.0027
 20
-489.7986
 30
0.0
 10
420.0742
 20
-489.7568
 30
0.0
 10
420.0742
 20
-489.7568
 30
0.0
 10
420.1088
 20
-489.7366
 30
0.0
 10
420.1545
 20
-489.7283
 30
0.0
 10
420.1782
 20
-489.6959
 30
0.0
 10
420.1782
 20
-489.6959
 30
0.0
 10
420.2381
 20
-489.614
 30
0.0
 10
420.2728
 20
-489.5161
 30
0.0
 10
420.3173
 20
-489.4249
 30
0.0
 10
420.3173
 20
-489.4249
 30
0.0
 10
420.6083
 20
-488.8292
 30
0.0
 10
420.8957
 20
-488.2318
 30
0.0
 10
421.185
 20
-487.6353
 30
0.0
  0
SPLINE
  5
63
330
1F
100
AcDbEntity
  8
przekroje wyczyszczone
370
     9
100
AcDbSpline
210
0.0
220
0.0
230
1.0
 70
     8
 71
     3
 72
    28
 73
    24
 74
     0
 42
0.0000000001
 43
0.0000000001
 40
0.0
 40
0.0
 40
0.0
 40
0.0
 40
0.1666666666666667
 40
0.1666666666666667
 40
0.1666666666666667
 40
0.1666666666666667
 40
0.3333333333333333
 40
0.3333333333333333
 40
0.3333333333333333
 40
0.3333333333333333
 40
0.5
 40
0.5
 40
0.5
 40
0.5
 40
0.6666666666666666
 40
0.6666666666666666
 40
0.6666666666666666
 40
0.6666666666666666
 40
0.8333333333333333
 40
0.8333333333333333
 40
0.8333333333333333
 40
0.8333333333333333
 40
1.0
 40
1.0
 40
1.0
 40
1.0
 10
12.2423
 20
-130.0895
 30
0.0
 10
63.4593
 20
-140.4132
 30
0.0
 10
113.5866
 20
-150.7156
 30
0.0
 10
164.9859
 20
-160.5706
 30
0.0
 10
164.9859
 20
-160.5706
 30
0.0
 10
239.5363
 20
-174.8645
 30
0.0
 10
315.4133
 20
-186.1097
 30
0.0
 10
390.3705
 20
-199.1095
 30
0.0
 10
390.3705
 20
-199.1095
 30
0.0
 10
448.0546
 20
-209.1137
 30
0.0
 10
506.1263
 20
-219.0138
 30
0.0
 10
566.1825
 20
-229.4308
 30
0.0
 10
566.1825
 20
-229.4308
 30
0.0
 10
605.3823
 20
-236.2301
 30
0.0
 10
646.6084
 20
-243.1506
 30
0.0
 10
685.0475
 20
-250.807
 30
0.0
 10
685.0475
 20
-250.807
 30
0.0
 10
705.9135
 20
-254.9631
 30
0.0
 10
727.9728
 20
-259.5289
 30
0.0
 10
747.919
 20
-266.0402
 30
0.0
 10
747.919
 20
-266.0402
 30
0.0
 10
756.2539
 20
-268.761
 30
0.0
 10
764.8271
 20
-272.0547
 30
0.0
 10
772.5532
 20
-276.237
 30
0.0
  0
SPLINE
  5
64
330
1F
100
AcDbEntity
  8
przekroje wyczyszczone
370
     9
100
AcDbSpline
210
0.0
220
0.0
230
1.0
 70
     8
 71
     3
 72
    52
 73
    48
 74
     0
 42
0.0000000001
 43
0.0000000001
 40
0.0
 40
0.0
 40
0.0
 40
0.0
 40
0.0833333333333333
 40
0.0833333333333333
 40
0.0833333333333333
 40
0.0833333333333333
 40
0.1666666666666667
 40
0.1666666666666667
 40
0.1666666666666667
 40
0.1666666666666667
 40
0.25
 40
0.25
 40
0.25
 40
0.25
 40
0.3333333333333333
 40
0.3333333333333333
 40
0.3333333333333333
 40
0.3333333333333333
 40
0.4166666666666666
 40
0.4166666666666666
 40
0.4166666666666666
 40
0.4166666666666666
 40
0.4999999999999999
 40
0.4999999999999999
 40
0.4999999999999999
 40
0.4999999999999999
 40
0.5833333333333333
 40
0.5833333333333333
 40
0.5833333333333333
 40
0.5833333333333333
 40
0.6666666666666666
 40
0.6666666666666666
 40
0.6666666666666666
 40
0.6666666666666666
 40
0.75
 40
0.75
 40
0.75
 40
0.75
 40
0.8333333333333334
 40
0.8333333333333334
 40
0.8333333333333334
 40
0.8333333333333334
 40
0.9166666666666667
 40
0.9166666666666667
 40
0.9166666666666667
 40
0.9166666666666667
 40
1.0
 40
1.0
 40
1.0
 40
1.0
 10
45.8346
 20
399.1718
 30
0.0
 10
105.7402
 20
392.2318
 30
0.0
 10
165.6439
 20
385.2739
 30
0.0
 10
225.5516
 20
378.352
 30
0.0
 10
225.5516
 20
378.352
 30
0.0
 10
319.7746
 20
367.4654
 30
0.0
 10
414.0317
 20
356.8606
 30
0.0
 10
508.2462
 20
345.904
 30
0.0
 10
508.2462
 20
345.904
 30
0.0
 10
565.795
 20
339.2115
 30
0.0
 10
623.683
 20
333.681
 30
0.0
 10
682.3366
 20
326.8078
 30
0.0
 10
682.3366
 20
326.8078
 30
0.0
 10
740.2585
 20
320.0203
 30
0.0
 10
798.9555
 20
311.9424
 30
0.0
 10
854.4404
 20
297.0496
 30
0.0
 10
854.4404
 20
297.0496
 30
0.0
 10
865.9722
 20
293.9543
 30
0.0
 10
870.8678
 20
291.0058
 30
0.0
 10
881.7625
 20
286.2318
 30
0.0
 10
881.7625
 20
286.2318
 30
0.0
 10
882.0909
 20
286.0879
 30
0.0
 10
882.5903
 20
282.9164
 30
0.0
 10
882.9196
 20
282.7741
 30
0.0
 10
882.9196
 20
282.7741
 30
0.0
 10
882.921
 20
282.7735
 30
0.0
 10
882.9196
 20
282.7775
 30
0.0
 10
882.9196
 20
282.7793
 30
0.0
 10
882.9196
 20
282.7793
 30
0.0
 10
882.9196
 20
282.783
 30
0.0
 10
882.9196
 20
282.7867
 30
0.0
 10
882.9196
 20
282.7904
 30
0.0
 10
882.9196
 20
282.7904
 30
0.0
 10
882.9196
 20
282.7957
 30
0.0
 10
882.9196
 20
282.801
 30
0.0
 10
882.9196
 20
282.8064
 30
0.0
 10
882.9196
 20
282.8064
 30
0.0
 10
882.9196
 20
282.8103
 30
0.0
 10
882.9196
 20
282.8142
 30
0.0
 10
882.9196
 20
282.8182
 30
0.0
 10
882.9196
 20
282.8182
 30
0.0
 10
882.9196
 20
282.8201
 30
0.0
 10
882.9212
 20
282.8248
 30
0.0
 10
882.9196
 20
282.8239
 30
0.0
 10
882.9196
 20
282.8239
 30
0.0
 10
882.8129
 20
282.7585
 30
0.0
 10
882.7079
 20
282.6903
 30
0.0
 10
882.6021
 20
282.6235
 30
0.0
  0
SPLINE
  5
65
330
1F
100
AcDbEntity
  8
przekroje wyczyszczone
370
     9
100
AcDbSpline
210
0.0
220
0.0
230
1.0
 70
     8
 71
     3
 72
    40
 73
    36
 74
     0
 42
0.0000000001
 43
0.0000000001
 40
0.0
 40
0.0
 40
0.0
 40
0.0
 40
0.1111111111111111
 40
0.1111111111111111
 40
0.1111111111111111
 40
0.1111111111111111
 40
0.2222222222222222
 40
0.2222222222222222
 40
0.2222222222222222
 40
0.2222222222222222
 40
0.3333333333333333
 40
0.3333333333333333
 40
0.3333333333333333
 40
0.3333333333333333
 40
0.4444444444444444
 40
0.4444444444444444
 40
0.4444444444444444
 40
0.4444444444444444
 40
0.5555555555555556
 40
0.5555555555555556
 40
0.5555555555555556
 40
0.5555555555555556
 40
0.6666666666666667
 40
0.6666666666666667
 40
0.6666666666666667
 40
0.6666666666666667
 40
0.7777777777777779
 40
0.7777777777777779
 40
0.7777777777777779
 40
0.7777777777777779
 40
0.8888888888888891
 40
0.8888888888888891
 40
0.8888888888888891
 40
0.8888888888888891
 40
1.0
 40
1.0
 40
1.0
 40
1.0
 10
36.1449
 20
444.1705
 30
0.0
 10
93.4887
 20
452.9179
 30
0.0
 10
150.8137
 20
461.7901
 30
0.0
 10
208.1763
 20
470.4128
 30
0.0
 10
208.1763
 20
470.4128
 30
0.0
 10
226.78
 20
473.2093
 30
0.0
 10
245.5343
 20
475.9159
 30
0.0
 10
264.143
 20
478.6787
 30
0.0
 10
264.143
 20
478.6787
 30
0.0
 10
294.0281
 20
483.1156
 30
0.0
 10
323.7725
 20
487.5794
 30
0.0
 10
353.6742
 20
491.902
 30
0.0
 10
353.6742
 20
491.902
 30
0.0
 10
394.4888
 20
497.8021
 30
0.0
 10
435.3442
 20
503.4261
 30
0.0
 10
476.1852
 20
509.1409
 30
0.0
 10
476.1852
 20
509.1409
 30
0.0
 10
507.4615
 20
513.5179
 30
0.0
 10
538.7537
 20
517.7834
 30
0.0
 10
570.0185
 20
522.2411
 30
0.0
 10
570.0185
 20
522.2411
 30
0.0
 10
596.4239
 20
526.0059
 30
0.0
 10
622.8198
 20
529.8412
 30
0.0
 10
649.1943
 20
533.8177
 30
0.0
 10
649.1943
 20
533.8177
 30
0.0
 10
678.08
 20
538.1727
 30
0.0
 10
706.8975
 20
542.7775
 30
0.0
 10
735.6823
 20
547.7458
 30
0.0
 10
735.6823
 20
547.7458
 30
0.0
 10
754.2212
 20
550.9455
 30
0.0
 10
773.2234
 20
554.0354
 30
0.0
 10
791.4115
 20
558.8943
 30
0.0
 10
791.4115
 20
558.8943
 30
0.0
 10
799.6309
 20
561.0904
 30
0.0
 10
807.8032
 20
564.0639
 30
0.0
 10
815.7334
 20
566.7631
 30
0.0
  0
SPLINE
  5
66
330
1F
100
AcDbEntity
  8
przekroje wyczyszczone
370
     9
100
AcDbSpline
210
0.0
220
0.0
230
1.0
 70
     8
 71
     3
 72
    24
 73
    20
 74
     0
 42
0.0000000001
 43
0.0000000001
 40
0.0
 40
0.0
 40
0.0
 40
0.0
 40
0.2
 40
0.2
 40
0.2
 40
0.2
 40
0.4
 40
0.4
 40
0.4
 40
0.4
 40
0.6000000000000001
 40
0.6000000000000001
 40
0.6000000000000001
 40
0.6000000000000001
 40
0.8
 40
0.8
 40
0.8
 40
0.8
 40
1.0
 40
1.0
 40
1.0
 40
1.0
 10
-17.9418
 20
-317.1042
 30
0.0
 10
-17.9418
 20
-317.1042
 30
0.0
 10
1.0272
 20
-316.9799
 30
0.0
 10
1.0272
 20
-316.9799
 30
0.0
 10
1.0272
 20
-316.9799
 30
0.0
 10
1.0272
 20
-316.9799
 30
0.0
 10
12.2423
 20
-130.0895
 30
0.0
 10
12.2423
 20
-130.0895
 30
0.0
 10
12.2423
 20
-130.0895
 30
0.0
 10
12.2423
 20
-130.0895
 30
0.0
 10
45.8346
 20
399.1718
 30
0.0
 10
45.8346
 20
399.1718
 30
0.0
 10
45.8346
 20
399.1718
 30
0.0
 10
45.8346
 20
399.1718
 30
0.0
 10
36.1449
 20
444.1705
 30
0.0
 10
36.1449
 20
444.1705
 30
0.0
 10
36.1449
 20
444.1705
 30
0.0
 10
36.1449
 20
444.1705
 30
0.0
 10
-17.8353
 20
444.1705
 30
0.0
 10
-17.8353
 20
444.1705
 30
0.0
  0
SPLINE
  5
67
330
1F
100
AcDbEntity
  8
przekroje wyczyszczone
370
     9
100
AcDbSpline
210
0.0
220
0.0
230
1.0
 70
     8
 71
     3
 72
    20
 73
    16
 74
     0
 42
0.0000000001
 43
0.0000000001
 40
0.0
 40
0.0
 40
0.0
 40
0.0
 40
0.25
 40
0.25
 40
0.25
 40
0.25
 40
0.5
 40
0.5
 40
0.5
 40
0.5
 40
0.75
 40
0.75
 40
0.75
 40
0.75
 40
1.0
 40
1.0
 40
1.0
 40
1.0
 10
-454.3884
 20
-489.8393
 30
0.0
 10
-456.2166
 20
-488.0229
 30
0.0
 10
-458.9738
 20
-482.4167
 30
0.0
 10
-458.8383
 20
-479.5594
 30
0.0
 10
-458.8383
 20
-479.5594
 30
0.0
 10
-458.4314
 20
-470.9791
 30
0.0
 10
-455.9358
 20
-460.5414
 30
0.0
 10
-454.2429
 20
-452.2127
 30
0.0
 10
-454.2429
 20
-452.2127
 30
0.0
 10
-449.1232
 20
-427.0248
 30
0.0
 10
-441.315
 20
-405.5085
 30
0.0
 10
-435.8413
 20
-382.0829
 30
0.0
 10
-435.8413
 20
-382.0829
 30
0.0
 10
-426.7992
 20
-343.3855
 30
0.0
 10
-415.2272
 20
-308.276
 30
0.0
 10
-405.4434
 20
-269.6953
 30
0.0
  0
SPLINE
  5
68
330
1F
100
AcDbEntity
  8
przekroje wyczyszczone
370
     9
100
AcDbSpline
210
0.0
220
0.0
230
1.0
 70
     8
 71
     3
 72
    36
 73
    32
 74
     0
 42
0.0000000001
 43
0.0000000001
 40
0.0
 40
0.0
 40
0.0
 40
0.0
 40
0.125
 40
0.125
 40
0.125
 40
0.125
 40
0.25
 40
0.25
 40
0.25
 40
0.25
 40
0.375
 40
0.375
 40
0.375
 40
0.375
 40
0.5
 40
0.5
 40
0.5
 40
0.5
 40
0.625
 40
0.625
 40
0.625
 40
0.625
 40
0.75
 40
0.75
 40
0.75
 40
0.75
 40
0.875
 40
0.875
 40
0.875
 40
0.875
 40
1.0
 40
1.0
 40
1.0
 40
1.0
 10
-807.0135
 20
-278.84
 30
0.0
 10
-802.6433
 20
-280.03
 30
0.0
 10
-798.1391
 20
-279.5654
 30
0.0
 10
-793.7131
 20
-278.4808
 30
0.0
 10
-793.7131
 20
-278.4808
 30
0.0
 10
-785.9356
 20
-276.5748
 30
0.0
 10
-778.0401
 20
-273.4956
 30
0.0
 10
-770.2533
 20
-269.7273
 30
0.0
 10
-770.2533
 20
-269.7273
 30
0.0
 10
-755.7274
 20
-262.6976
 30
0.0
 10
-741.579
 20
-253.2694
 30
0.0
 10
-729.2792
 20
-244.5836
 30
0.0
 10
-729.2792
 20
-244.5836
 30
0.0
 10
-725.9471
 20
-242.2306
 30
0.0
 10
-722.6344
 20
-239.8494
 30
0.0
 10
-719.336
 20
-237.4493
 30
0.0
 10
-719.336
 20
-237.4493
 30
0.0
 10
-715.8236
 20
-234.8936
 30
0.0
 10
-712.2816
 20
-232.3753
 30
0.0
 10
-708.8469
 20
-229.7162
 30
0.0
 10
-708.8469
 20
-229.7162
 30
0.0
 10
-704.4859
 20
-226.3399
 30
0.0
 10
-700.1524
 20
-222.9227
 30
0.0
 10
-695.9537
 20
-219.3466
 30
0.0
 10
-695.9537
 20
-219.3466
 30
0.0
 10
-689.8885
 20
-214.1808
 30
0.0
 10
-683.9505
 20
-208.8653
 30
0.0
 10
-678.0634
 20
-203.4974
 30
0.0
 10
-678.0634
 20
-203.4974
 30
0.0
 10
-670.3512
 20
-196.4654
 30
0.0
 10
-662.7936
 20
-189.2656
 30
0.0
 10
-655.1588
 20
-182.1496
 30
0.0
  0
SPLINE
  5
69
330
1F
100
AcDbEntity
  8
przekroje wyczyszczone
370
     9
100
AcDbSpline
210
0.0
220
0.0
230
1.0
 70
     8
 71
     3
 72
    20
 73
    16
 74
     0
 42
0.0000000001
 43
0.0000000001
 40
0.0
 40
0.0
 40
0.0
 40
0.0
 40
0.25
 40
0.25
 40
0.25
 40
0.25
 40
0.5
 40
0.5
 40
0.5
 40
0.5
 40
0.75
 40
0.75
 40
0.75
 40
0.75
 40
1.0
 40
1.0
 40
1.0
 40
1.0
 10
-917.6423
 20
286.2318
 30
0.0
 10
-914.4981
 20
280.0338
 30
0.0
 10
-909.8595
 20
277.2859
 30
0.0
 10
-905.0739
 20
275.6178
 30
0.0
 10
-905.0739
 20
275.6178
 30
0.0
 10
-896.8134
 20
272.7385
 30
0.0
 10
-884.2948
 20
269.9332
 30
0.0
 10
-875.6547
 20
268.8815
 30
0.0
 10
-875.6547
 20
268.8815
 30
0.0
 10
-855.8884
 20
266.4753
 30
0.0
 10
-838.8217
 20
264.9097
 30
0.0
 10
-818.9011
 20
264.3795
 30
0.0
 10
-818.9011
 20
264.3795
 30
0.0
 10
-790.7434
 20
263.63
 30
0.0
 10
-762.5694
 20
264.2814
 30
0.0
 10
-734.4126
 20
264.7555
 30
0.0
  0
SPLINE
  5
6A
330
1F
100
AcDbEntity
  8
przekroje wyczyszczone
370
     9
100
AcDbSpline
210
0.0
220
0.0
230
1.0
 70
    24
 71
     3
 72
     8
 73
     4
 74
     0
 42
0.0000000001
 43
0.0000000001
 40
0.0
 40
0.0
 40
0.0
 40
0.0
 40
1.0
 40
1.0
 40
1.0
 40
1.0
 10
-17.9399
 20
756.9828
 30
0.0
 10
-17.9399
 20
756.9828
 30
0.0
 10
-17.9423
 20
-549.4181
 30
0.0
 10
-17.9423
 20
-549.4181
 30
0.0
  0
SPLINE
  5
6B
330
1F
100
AcDbEntity
  8
przekroje wyczyszczone
370
     9
100
AcDbSpline
210
0.0
220
0.0
230
1.0
 70
     8
 71
     3
 72
    28
 73
    24
 74
     0
 42
0.0000000001
 43
0.0000000001
 40
0.0
 40
0.0
 40
0.0
 40
0.0
 40
0.1666666666666667
 40
0.1666666666666667
 40
0.1666666666666667
 40
0.1666666666666667
 40
0.3333333333333333
 40
0.3333333333333333
 40
0.3333333333333333
 40
0.3333333333333333
 40
0.5
 40
0.5
 40
0.5
 40
0.5
 40
0.6666666666666666
 40
0.6666666666666666
 40
0.6666666666666666
 40
0.6666666666666666
 40
0.8333333333333333
 40
0.8333333333333333
 40
0.8333333333333333
 40
0.8333333333333333
 40
1.0
 40
1.0
 40
1.0
 40
1.0
 10
-17.9415
 20
-131.0956
 30
0.0
 10
-17.9415
 20
-131.0956
 30
0.0
 10
-318.6081
 20
-131.0956
 30
0.0
 10
-318.6081
 20
-131.0956
 30
0.0
 10
-318.6081
 20
-131.0956
 30
0.0
 10
-318.6081
 20
-131.0956
 30
0.0
 10
-318.5455
 20
264.7749
 30
0.0
 10
-318.5455
 20
264.7749
 30
0.0
 10
-318.5455
 20
264.7749
 30
0.0
 10
-318.5455
 20
264.7749
 30
0.0
 10
-734.4126
 20
264.7555
 30
0.0
 10
-734.4126
 20
264.7555
 30
0.0
 10
-734.4126
 20
264.7555
 30
0.0
 10
-708.4831
 20
118.5344
 30
0.0
 10
-681.1021
 20
-35.931
 30
0.0
 10
-655.1588
 20
-182.1496
 30
0.0
 10
-655.1588
 20
-182.1496
 30
0.0
 10
-655.1588
 20
-182.1496
 30
0.0
 10
-405.559
 20
-269.6553
 30
0.0
 10
-405.559
 20
-269.6553
 30
0.0
 10
-405.559
 20
-269.6553
 30
0.0
 10
-405.559
 20
-269.6553
 30
0.0
 10
-17.2112
 20
-269.6724
 30
0.0
 10
-17.2112
 20
-269.6724
 30
0.0
  0
SPLINE
  5
6C
330
1F
100
AcDbEntity
  8
przekroje wyczyszczone
370
     9
100
AcDbSpline
210
0.0
220
0.0
230
1.0
 70
     8
 71
     3
 72
    24
 73
    20
 74
     0
 42
0.0000000001
 43
0.0000000001
 40
0.0
 40
0.0
 40
0.0
 40
0.0
 40
0.2
 40
0.2
 40
0.2
 40
0.2
 40
0.4
 40
0.4
 40
0.4
 40
0.4
 40
0.6000000000000001
 40
0.6000000000000001
 40
0.6000000000000001
 40
0.6000000000000001
 40
0.8
 40
0.8
 40
0.8
 40
0.8
 40
1.0
 40
1.0
 40
1.0
 40
1.0
 10
-17.3078
 20
-342.1368
 30
0.0
 10
-17.3078
 20
-342.1368
 30
0.0
 10
61.1116
 20
-341.1459
 30
0.0
 10
61.1116
 20
-341.1459
 30
0.0
 10
61.1116
 20
-341.1459
 30
0.0
 10
61.1116
 20
-341.1459
 30
0.0
 10
164.9859
 20
-160.5706
 30
0.0
 10
164.9859
 20
-160.5706
 30
0.0
 10
164.9859
 20
-160.5706
 30
0.0
 10
164.9859
 20
-160.5706
 30
0.0
 10
291.316
 20
370.7767
 30
0.0
 10
291.316
 20
370.7767
 30
0.0
 10
291.316
 20
370.7767
 30
0.0
 10
291.316
 20
370.7767
 30
0.0
 10
264.143
 20
478.6787
 30
0.0
 10
264.143
 20
478.6787
 30
0.0
 10
264.143
 20
478.6787
 30
0.0
 10
198.7471
 20
506.0624
 30
0.0
 10
85.3584
 20
522.5429
 30
0.0
 10
-17.4004
 20
522.5286
 30
0.0
  0
SPLINE
  5
6D
330
1F
100
AcDbEntity
  8
przekroje wyczyszczone
370
     9
100
AcDbSpline
210
0.0
220
0.0
230
1.0
 70
     8
 71
     3
 72
    24
 73
    20
 74
     0
 42
0.0000000001
 43
0.0000000001
 40
0.0
 40
0.0
 40
0.0
 40
0.0
 40
0.2
 40
0.2
 40
0.2
 40
0.2
 40
0.4
 40
0.4
 40
0.4
 40
0.4
 40
0.6000000000000001
 40
0.6000000000000001
 40
0.6000000000000001
 40
0.6000000000000001
 40
0.8
 40
0.8
 40
0.8
 40
0.8
 40
1.0
 40
1.0
 40
1.0
 40
1.0
 10
-17.9303
 20
-391.3465
 30
0.0
 10
-17.9303
 20
-391.3465
 30
0.0
 10
179.9197
 20
-390.5339
 30
0.0
 10
179.9197
 20
-390.5339
 30
0.0
 10
179.9197
 20
-390.5339
 30
0.0
 10
179.9197
 20
-390.5339
 30
0.0
 10
390.3705
 20
-199.1095
 30
0.0
 10
390.3705
 20
-199.1095
 30
0.0
 10
390.3705
 20
-199.1095
 30
0.0
 10
390.3705
 20
-199.1095
 30
0.0
 10
512.663
 20
345.3796
 30
0.0
 10
512.663
 20
345.3796
 30
0.0
 10
512.663
 20
345.3796
 30
0.0
 10
512.663
 20
345.3796
 30
0.0
 10
476.1837
 20
509.139
 30
0.0
 10
476.1837
 20
509.139
 30
0.0
 10
476.1837
 20
509.139
 30
0.0
 10
353.4283
 20
561.8232
 30
0.0
 10
179.7004
 20
594.1928
 30
0.0
 10
-17.9401
 20
594.1471
 30
0.0
  0
SPLINE
  5
6E
330
1F
100
AcDbEntity
  8
przekroje wyczyszczone
370
     9
100
AcDbSpline
210
0.0
220
0.0
230
1.0
 70
     8
 71
     3
 72
    24
 73
    20
 74
     0
 42
0.0000000001
 43
0.0000000001
 40
0.0
 40
0.0
 40
0.0
 40
0.0
 40
0.2
 40
0.2
 40
0.2
 40
0.2
 40
0.4
 40
0.4
 40
0.4
 40
0.4
 40
0.6000000000000001
 40
0.6000000000000001
 40
0.6000000000000001
 40
0.6000000000000001
 40
0.8
 40
0.8
 40
0.8
 40
0.8
 40
1.0
 40
1.0
 40
1.0
 40
1.0
 10
-18.0079
 20
-431.5199
 30
0.0
 10
-18.0079
 20
-431.5199
 30
0.0
 10
274.752
 20
-431.3958
 30
0.0
 10
274.752
 20
-431.3958
 30
0.0
 10
274.752
 20
-431.3958
 30
0.0
 10
274.752
 20
-431.3958
 30
0.0
 10
566.1825
 20
-229.4308
 30
0.0
 10
566.1825
 20
-229.4308
 30
0.0
 10
566.1825
 20
-229.4308
 30
0.0
 10
566.1825
 20
-229.4308
 30
0.0
 10
682.3366
 20
326.8078
 30
0.0
 10
682.3366
 20
326.8078
 30
0.0
 10
682.3366
 20
326.8078
 30
0.0
 10
682.3366
 20
326.8078
 30
0.0
 10
632.6459
 20
531.398
 30
0.0
 10
632.6459
 20
531.398
 30
0.0
 10
632.6459
 20
531.398
 30
0.0
 10
459.392
 20
600.0219
 30
0.0
 10
209.5571
 20
645.8442
 30
0.0
 10
-17.94
 20
645.9404
 30
0.0
  0
SPLINE
  5
6F
330
1F
100
AcDbEntity
  8
przekroje wyczyszczone
370
     9
100
AcDbSpline
210
0.0
220
0.0
230
1.0
 70
     8
 71
     3
 72
    24
 73
    20
 74
     0
 42
0.0000000001
 43
0.0000000001
 40
0.0
 40
0.0
 40
0.0
 40
0.0
 40
0.2
 40
0.2
 40
0.2
 40
0.2
 40
0.4
 40
0.4
 40
0.4
 40
0.4
 40
0.6000000000000001
 40
0.6000000000000001
 40
0.6000000000000001
 40
0.6000000000000001
 40
0.8
 40
0.8
 40
0.8
 40
0.8
 40
1.0
 40
1.0
 40
1.0
 40
1.0
 10
-17.1561
 20
-461.4142
 30
0.0
 10
-17.1561
 20
-461.4142
 30
0.0
 10
341.7085
 20
-461.1975
 30
0.0
 10
341.7085
 20
-461.1975
 30
0.0
 10
341.7085
 20
-461.1975
 30
0.0
 10
341.7085
 20
-461.1975
 30
0.0
 10
684.9596
 20
-251.2608
 30
0.0
 10
684.9596
 20
-251.2608
 30
0.0
 10
684.9596
 20
-251.2608
 30
0.0
 10
684.9596
 20
-251.2608
 30
0.0
 10
793.793
 20
310.1783
 30
0.0
 10
793.793
 20
310.1783
 30
0.0
 10
793.793
 20
310.1783
 30
0.0
 10
793.793
 20
310.1783
 30
0.0
 10
735.6682
 20
547.7673
 30
0.0
 10
735.6682
 20
547.7673
 30
0.0
 10
735.6682
 20
547.7673
 30
0.0
 10
534.9773
 20
627.2696
 30
0.0
 10
292.021
 20
679.4968
 30
0.0
 10
-17.1868
 20
679.419
 30
0.0
  0
SPLINE
  5
70
330
1F
100
AcDbEntity
  8
przekroje wyczyszczone
370
     9
100
AcDbSpline
210
0.0
220
0.0
230
1.0
 70
     8
 71
     3
 72
    24
 73
    20
 74
     0
 42
0.0000000001
 43
0.0000000001
 40
0.0
 40
0.0
 40
0.0
 40
0.0
 40
0.2
 40
0.2
 40
0.2
 40
0.2
 40
0.4
 40
0.4
 40
0.4
 40
0.4
 40
0.6000000000000001
 40
0.6000000000000001
 40
0.6000000000000001
 40
0.6000000000000001
 40
0.8
 40
0.8
 40
0.8
 40
0.8
 40
1.0
 40
1.0
 40
1.0
 40
1.0
 10
-16.9979
 20
-480.0694
 30
0.0
 10
-16.9979
 20
-480.0694
 30
0.0
 10
386.9967
 20
-479.531
 30
0.0
 10
386.9967
 20
-479.531
 30
0.0
 10
386.9967
 20
-479.531
 30
0.0
 10
386.9967
 20
-479.531
 30
0.0
 10
747.919
 20
-266.0402
 30
0.0
 10
747.919
 20
-266.0402
 30
0.0
 10
747.919
 20
-266.0402
 30
0.0
 10
747.919
 20
-266.0402
 30
0.0
 10
854.4404
 20
297.0496
 30
0.0
 10
854.4404
 20
297.0496
 30
0.0
 10
854.4404
 20
297.0496
 30
0.0
 10
854.4404
 20
297.0496
 30
0.0
 10
791.4102
 20
558.8934
 30
0.0
 10
791.4102
 20
558.8934
 30
0.0
 10
791.4102
 20
558.8934
 30
0.0
 10
571.3513
 20
640.382
 30
0.0
 10
316.7748
 20
698.2966
 30
0.0
 10
-17.9399
 20
698.5166
 30
0.0
  0
SPLINE
  5
71
330
1F
100
AcDbEntity
  8
przekroje wyczyszczone
370
     9
100
AcDbSpline
210
0.0
220
0.0
230
1.0
 70
     8
 71
     3
 72
    24
 73
    20
 74
     0
 42
0.0000000001
 43
0.0000000001
 40
0.0
 40
0.0
 40
0.0
 40
0.0
 40
0.2
 40
0.2
 40
0.2
 40
0.2
 40
0.4
 40
0.4
 40
0.4
 40
0.4
 40
0.6000000000000001
 40
0.6000000000000001
 40
0.6000000000000001
 40
0.6000000000000001
 40
0.8
 40
0.8
 40
0.8
 40
0.8
 40
1.0
 40
1.0
 40
1.0
 40
1.0
 10
-17.6356
 20
-490.7671
 30
0.0
 10
-17.6356
 20
-490.7671
 30
0.0
 10
418.5086
 20
-489.8393
 30
0.0
 10
418.5086
 20
-489.8393
 30
0.0
 10
418.5086
 20
-489.8393
 30
0.0
 10
418.5086
 20
-489.8393
 30
0.0
 10
772.5532
 20
-276.237
 30
0.0
 10
772.5532
 20
-276.237
 30
0.0
 10
772.5532
 20
-276.237
 30
0.0
 10
772.5532
 20
-276.237
 30
0.0
 10
881.7625
 20
286.2318
 30
0.0
 10
881.7625
 20
286.2318
 30
0.0
 10
881.7625
 20
286.2318
 30
0.0
 10
881.7625
 20
286.2318
 30
0.0
 10
815.7334
 20
566.7631
 30
0.0
 10
815.7334
 20
566.7631
 30
0.0
 10
815.7334
 20
566.7631
 30
0.0
 10
598.0333
 20
650.1658
 30
0.0
 10
326.8109
 20
705.9187
 30
0.0
 10
-17.9399
 20
706.2218
 30
0.0
  0
SPLINE
  5
72
330
1F
100
AcDbEntity
  8
przekroje wyczyszczone
370
     9
100
AcDbSpline
210
0.0
220
0.0
230
1.0
 70
     8
 71
     3
 72
    36
 73
    32
 74
     0
 42
0.0000000001
 43
0.0000000001
 40
0.0
 40
0.0
 40
0.0
 40
0.0
 40
0.125
 40
0.125
 40
0.125
 40
0.125
 40
0.25
 40
0.25
 40
0.25
 40
0.25
 40
0.375
 40
0.375
 40
0.375
 40
0.375
 40
0.5
 40
0.5
 40
0.5
 40
0.5
 40
0.625
 40
0.625
 40
0.625
 40
0.625
 40
0.75
 40
0.75
 40
0.75
 40
0.75
 40
0.875
 40
0.875
 40
0.875
 40
0.875
 40
1.0
 40
1.0
 40
1.0
 40
1.0
 10
-16.981
 20
-479.9828
 30
0.0
 10
-16.981
 20
-479.9828
 30
0.0
 10
-268.2599
 20
-479.7942
 30
0.0
 10
-268.2599
 20
-479.7942
 30
0.0
 10
-268.2599
 20
-479.7942
 30
0.0
 10
-268.2599
 20
-479.7942
 30
0.0
 10
-415.3595
 20
-479.6836
 30
0.0
 10
-415.3595
 20
-479.6836
 30
0.0
 10
-415.3595
 20
-479.6836
 30
0.0
 10
-415.3595
 20
-479.6836
 30
0.0
 10
-458.8383
 20
-479.5594
 30
0.0
 10
-458.8383
 20
-479.5594
 30
0.0
 10
-458.8383
 20
-479.5594
 30
0.0
 10
-458.8383
 20
-479.5594
 30
0.0
 10
-793.7131
 20
-278.4808
 30
0.0
 10
-793.7131
 20
-278.4808
 30
0.0
 10
-793.7131
 20
-278.4808
 30
0.0
 10
-793.7131
 20
-278.4808
 30
0.0
 10
-905.0739
 20
275.6178
 30
0.0
 10
-905.0739
 20
275.6178
 30
0.0
 10
-905.0739
 20
275.6178
 30
0.0
 10
-905.0739
 20
275.6178
 30
0.0
 10
-318.5439
 20
274.7126
 30
0.0
 10
-318.5439
 20
274.7126
 30
0.0
 10
-318.5439
 20
274.7126
 30
0.0
 10
-318.5439
 20
274.7126
 30
0.0
 10
-318.6081
 20
-116.0956
 30
0.0
 10
-318.6081
 20
-116.0956
 30
0.0
 10
-318.6081
 20
-116.0956
 30
0.0
 10
-318.6081
 20
-116.0956
 30
0.0
 10
-17.9414
 20
-116.0956
 30
0.0
 10
-17.9414
 20
-116.0956
 30
0.0
  0
SPLINE
  5
73
330
1F
100
AcDbEntity
  8
przekroje wyczyszczone
370
     9
100
AcDbSpline
210
0.0
220
0.0
230
1.0
 70
     8
 71
     3
 72
    32
 73
    28
 74
     0
 42
0.0000000001
 43
0.0000000001
 40
0.0
 40
0.0
 40
0.0
 40
0.0
 40
0.1428571428571428
 40
0.1428571428571428
 40
0.1428571428571428
 40
0.1428571428571428
 40
0.2857142857142857
 40
0.2857142857142857
 40
0.2857142857142857
 40
0.2857142857142857
 40
0.4285714285714285
 40
0.4285714285714285
 40
0.4285714285714285
 40
0.4285714285714285
 40
0.5714285714285714
 40
0.5714285714285714
 40
0.5714285714285714
 40
0.5714285714285714
 40
0.7142857142857142
 40
0.7142857142857142
 40
0.7142857142857142
 40
0.7142857142857142
 40
0.857142857142857
 40
0.857142857142857
 40
0.857142857142857
 40
0.857142857142857
 40
1.0
 40
1.0
 40
1.0
 40
1.0
 10
-17.8469
 20
-452.1088
 30
0.0
 10
-17.8469
 20
-452.1088
 30
0.0
 10
-454.2429
 20
-452.2127
 30
0.0
 10
-454.2429
 20
-452.2127
 30
0.0
 10
-454.2429
 20
-452.2127
 30
0.0
 10
-454.2429
 20
-452.2127
 30
0.0
 10
-770.2797
 20
-269.7401
 30
0.0
 10
-770.2797
 20
-269.7401
 30
0.0
 10
-770.2797
 20
-269.7401
 30
0.0
 10
-770.2797
 20
-269.7401
 30
0.0
 10
-875.6674
 20
268.9461
 30
0.0
 10
-875.6674
 20
268.9461
 30
0.0
 10
-875.6674
 20
268.9461
 30
0.0
 10
-875.6674
 20
268.9461
 30
0.0
 10
-806.5695
 20
269.064
 30
0.0
 10
-806.5695
 20
269.064
 30
0.0
 10
-806.5695
 20
269.064
 30
0.0
 10
-643.9136
 20
269.2254
 30
0.0
 10
-481.2571
 20
269.3178
 30
0.0
 10
-318.6013
 20
269.5885
 30
0.0
 10
-318.6013
 20
269.5885
 30
0.0
 10
-318.6013
 20
269.5885
 30
0.0
 10
-318.6081
 20
-120.3919
 30
0.0
 10
-318.6081
 20
-120.3919
 30
0.0
 10
-318.6081
 20
-120.3919
 30
0.0
 10
-318.6081
 20
-120.3919
 30
0.0
 10
-17.9414
 20
-121.2341
 30
0.0
 10
-17.9414
 20
-121.2341
 30
0.0
  0
SPLINE
  5
74
330
1F
100
AcDbEntity
  8
przekroje wyczyszczone
370
     9
100
AcDbSpline
210
0.0
220
0.0
230
1.0
 70
     8
 71
     3
 72
    28
 73
    24
 74
     0
 42
0.0000000001
 43
0.0000000001
 40
0.0
 40
0.0
 40
0.0
 40
0.0
 40
0.1666666666666667
 40
0.1666666666666667
 40
0.1666666666666667
 40
0.1666666666666667
 40
0.3333333333333333
 40
0.3333333333333333
 40
0.3333333333333333
 40
0.3333333333333333
 40
0.5
 40
0.5
 40
0.5
 40
0.5
 40
0.6666666666666666
 40
0.6666666666666666
 40
0.6666666666666666
 40
0.6666666666666666
 40
0.8333333333333333
 40
0.8333333333333333
 40
0.8333333333333333
 40
0.8333333333333333
 40
1.0
 40
1.0
 40
1.0
 40
1.0
 10
-17.8483
 20
-382.4128
 30
0.0
 10
-157.1788
 20
-382.3245
 30
0.0
 10
-296.5111
 20
-382.3872
 30
0.0
 10
-435.8413
 20
-382.0829
 30
0.0
 10
-435.8413
 20
-382.0829
 30
0.0
 10
-435.8413
 20
-382.0829
 30
0.0
 10
-726.043
 20
-242.2616
 30
0.0
 10
-726.043
 20
-242.2616
 30
0.0
 10
-726.043
 20
-242.2616
 30
0.0
 10
-726.043
 20
-242.2616
 30
0.0
 10
-816.7963
 20
264.3375
 30
0.0
 10
-816.7963
 20
264.3375
 30
0.0
 10
-816.7963
 20
264.3375
 30
0.0
 10
-816.7963
 20
264.3375
 30
0.0
 10
-318.5831
 20
264.3434
 30
0.0
 10
-318.5831
 20
264.3434
 30
0.0
 10
-318.5831
 20
264.3434
 30
0.0
 10
-318.5831
 20
264.3434
 30
0.0
 10
-318.6081
 20
-125.6995
 30
0.0
 10
-318.6081
 20
-125.6995
 30
0.0
 10
-318.6081
 20
-125.6995
 30
0.0
 10
-318.6081
 20
-125.6995
 30
0.0
 10
-17.9415
 20
-126.4013
 30
0.0
 10
-17.9415
 20
-126.4013
 30
0.0
  0
SPLINE
  5
75
330
1F
100
AcDbEntity
  8
przekroje wyczyszczone
370
     9
100
AcDbSpline
210
0.0
220
0.0
230
1.0
 70
     8
 71
     3
 72
    24
 73
    20
 74
     0
 42
0.0000000001
 43
0.0000000001
 40
0.0
 40
0.0
 40
0.0
 40
0.0
 40
0.2
 40
0.2
 40
0.2
 40
0.2
 40
0.4
 40
0.4
 40
0.4
 40
0.4
 40
0.6000000000000001
 40
0.6000000000000001
 40
0.6000000000000001
 40
0.6000000000000001
 40
0.8
 40
0.8
 40
0.8
 40
0.8
 40
1.0
 40
1.0
 40
1.0
 40
1.0
 10
-18.2442
 20
-490.7671
 30
0.0
 10
-18.2442
 20
-490.7671
 30
0.0
 10
-454.3884
 20
-489.8393
 30
0.0
 10
-454.3884
 20
-489.8393
 30
0.0
 10
-454.3884
 20
-489.8393
 30
0.0
 10
-454.3884
 20
-489.8393
 30
0.0
 10
-807.0135
 20
-278.84
 30
0.0
 10
-807.0135
 20
-278.84
 30
0.0
 10
-807.0135
 20
-278.84
 30
0.0
 10
-807.0135
 20
-278.84
 30
0.0
 10
-917.6423
 20
286.2318
 30
0.0
 10
-917.6423
 20
286.2318
 30
0.0
 10
-917.6423
 20
286.2318
 30
0.0
 10
-917.6423
 20
286.2318
 30
0.0
 10
-849.1999
 20
565.7279
 30
0.0
 10
-849.1999
 20
565.7279
 30
0.0
 10
-849.1999
 20
565.7279
 30
0.0
 10
-631.4998
 20
649.1306
 30
0.0
 10
-362.6907
 20
705.9187
 30
0.0
 10
-17.9399
 20
706.2218
 30
0.0
  0
TEXT
  5
77
330
1F
100
AcDbEntity
  8
przekroje wyczyszczone
 62
   250
100
AcDbText
 10
-30.2425
 20
517.9366
 30
0.0
 40
12.191976
  1
9
 51
-0.0000015352345087
  7
0
100
AcDbText
  0
TEXT
  5
79
330
1F
100
AcDbEntity
  8
przekroje wyczyszczone
 62
   250
100
AcDbText
 10
-29.5911
 20
589.4587
 30
0.0
 40
12.191976
  1
8
 51
-0.0000015352345087
  7
1
100
AcDbText
  0
TEXT
  5
7B
330
1F
100
AcDbEntity
  8
przekroje wyczyszczone
 62
   250
100
AcDbText
 10
-27.9795
 20
640.1478000000001
 30
0.0
 40
12.191976
  1
7
 51
-0.0000015352345087
  7
2
100
AcDbText
  0
TEXT
  5
7D
330
1F
100
AcDbEntity
  8
przekroje wyczyszczone
 62
   250
100
AcDbText
 10
-27.211
 20
673.6842
 30
0.0
 40
12.191976
  1
6
 51
-0.0000015352345087
  7
3
100
AcDbText
  0
TEXT
  5
7F
330
1F
100
AcDbEntity
  8
przekroje wyczyszczone
 62
   250
100
AcDbText
 10
-27.7567
 20
692.1905
 30
0.0
 40
12.191976
  1
5
 51
-0.0000015352345087
  7
4
100
AcDbText
  0
TEXT
  5
81
330
1F
100
AcDbEntity
  8
przekroje wyczyszczone
 62
   250
100
AcDbText
 10
-28.7102
 20
707.4585000000001
 30
0.0
 40
12.191976
  1
4
 51
-0.0000015352345087
  7
5
100
AcDbText
  0
TEXT
  5
83
330
1F
100
AcDbEntity
  8
przekroje wyczyszczone
 62
   250
100
AcDbText
 10
-745.6221
 20
240.1786
 30
0.0
 40
12.191976
  1
0
 51
-0.0000015352345087
  7
6
100
AcDbText
  0
TEXT
  5
85
330
1F
100
AcDbEntity
  8
przekroje wyczyszczone
 62
   250
100
AcDbText
 10
-912.725
 20
262.4949
 30
0.0
 40
12.191976
  1
3
 51
-0.0000015352345087
  7
7
100
AcDbText
  0
TEXT
  5
87
330
1F
100
AcDbEntity
  8
przekroje wyczyszczone
 62
   250
100
AcDbText
 10
-825.4128000000001
 20
250.5663
 30
0.0
 40
12.191976
  1
1
 51
-0.0000015352345087
  7
8
100
AcDbText
  0
TEXT
  5
89
330
1F
100
AcDbEntity
  8
przekroje wyczyszczone
 62
   250
100
AcDbText
 10
-927.9778
 20
270.1333
 30
0.0
 40
12.191976
  1
4
 51
-0.0000015352345087
  7
9
100
AcDbText
  0
TEXT
  5
8B
330
1F
100
AcDbEntity
  8
przekroje wyczyszczone
 62
   250
100
AcDbText
 10
-884.3471000000001
 20
254.4809
 30
0.0
 40
12.191976
  1
2
 51
-0.0000015352345087
  7
10
100
AcDbText
  0
TEXT
  5
8D
330
1F
100
AcDbEntity
  8
przekroje wyczyszczone
 62
   250
100
AcDbText
 10
271.7066
 20
350.4326
 30
0.0
 40
18.288
  1
9
 51
-0.0000015352345087
  7
11
100
AcDbText
  0
TEXT
  5
8F
330
1F
100
AcDbEntity
  8
przekroje wyczyszczone
 62
   250
100
AcDbText
 10
493.6521
 20
324.8222
 30
0.0
 40
18.288
  1
8
 51
-0.0000015352345087
  7
12
100
AcDbText
  0
TEXT
  5
91
330
1F
100
AcDbEntity
  8
przekroje wyczyszczone
 62
   250
100
AcDbText
 10
665.2303
 20
305.9176
 30
0.0
 40
18.288
  1
7
 51
-0.0000015352345087
  7
13
100
AcDbText
  0
TEXT
  5
93
330
1F
100
AcDbEntity
  8
przekroje wyczyszczone
 62
   250
100
AcDbText
 10
773.509
 20
291.0264
 30
0.0
 40
18.288
  1
6
 51
-0.0000015352345087
  7
14
100
AcDbText
  0
TEXT
  5
95
330
1F
100
AcDbEntity
  8
przekroje wyczyszczone
 62
   250
100
AcDbText
 10
834.2885
 20
279.7527
 30
0.0
 40
18.288
  1
5
 51
-0.0000015352345087
  7
15
100
AcDbText
  0
TEXT
  5
97
330
1F
100
AcDbEntity
  8
przekroje wyczyszczone
 62
   250
100
AcDbText
 10
863.3938
 20
268.5143
 30
0.0
 40
18.288
  1
4
 51
-0.0000015352345087
  7
16
100
AcDbText
  0
TEXT
  5
99
330
1F
100
AcDbEntity
  8
przekroje wyczyszczone
 62
   250
100
AcDbText
 10
-656.5792
 20
-445.805
 30
0.0
 40
18.288
  1
-140
 51
-0.0000015352345087
  7
17
100
AcDbText
  0
TEXT
  5
9B
330
1F
100
AcDbEntity
  8
przekroje wyczyszczone
 62
   250
100
AcDbText
 10
-891.3973000000001
 20
-182.5685
 30
0.0
 40
18.288
  1
120
 51
-0.0000015352345087
  7
18
100
AcDbText
  0
TEXT
  5
9D
330
1F
100
AcDbEntity
  8
przekroje wyczyszczone
 62
   250
100
AcDbText
 10
-894.4062
 20
-282.2879
 30
0.0
 40
18.288
  1
KLW
 51
-0.0000015352345087
  7
19
100
AcDbText
  0
ENDSEC
  0
SECTION
  2
OBJECTS
  0
DICTIONARY
  5
C
330
0
100
AcDbDictionary
281
     1
  3
ACAD_GROUP
350
D
  3
ACAD_LAYOUT
350
1A
  3
ACAD_MLEADERSTYLE
350
9F
  3
ACAD_MLINESTYLE
350
17
  3
ACAD_PLOTSETTINGS
350
19
  3
ACAD_PLOTSTYLENAME
350
E
  3
ACAD_SCALELIST
350
3B
  3
ACAD_TABLESTYLE
350
9E
  3
ACAD_VISUALSTYLE
350
2A
  0
DICTIONARY
  5
D
102
{ACAD_REACTORS
330
C
102
}
330
C
100
AcDbDictionary
281
     1
  0
DICTIONARY
  5
1A
102
{ACAD_REACTORS
330
C
102
}
330
C
100
AcDbDictionary
281
     1
  3
Layout1
350
1E
  3
Layout2
350
26
  3
Model
350
22
  0
DICTIONARY
  5
9F
102
{ACAD_REACTORS
330
C
102
}
330
C
100
AcDbDictionary
281
     1
  0
DICTIONARY
  5
17
102
{ACAD_REACTORS
330
C
102
}
330
C
100
AcDbDictionary
281
     1
  3
Standard
350
18
  0
DICTIONARY
  5
19
102
{ACAD_REACTORS
330
C
102
}
330
C
100
AcDbDictionary
281
     1
  0
ACDBDICTIONARYWDFLT
  5
E
102
{ACAD_REACTORS
330
C
102
}
330
C
100
AcDbDictionary
281
     1
  3
Normal
350
F
100
AcDbDictionaryWithDefault
340
F
  0
DICTIONARY
  5
3B
102
{ACAD_REACTORS
330
C
102
}
330
C
100
AcDbDictionary
281
     1
  3
A0
350
3C
  3
A1
350
3D
  3
A2
350
3E
  3
A3
350
3F
  3
A4
350
40
  3
A5
350
41
  3
A6
350
42
  3
A7
350
43
  3
A8
350
44
  3
A9
350
45
  3
B0
350
46
  3
B1
350
47
  3
B2
350
48
  3
B3
350
49
  3
B4
350
4A
  3
B5
350
4B
  3
B6
350
4C
  3
B7
350
4D
  3
B8
350
4E
  3
B9
350
4F
  3
C0
350
50
  3
C1
350
51
  3
C2
350
52
  3
C3
350
53
  3
C4
350
54
  3
C5
350
55
  3
C6
350
56
  3
C7
350
57
  3
C8
350
58
  3
C9
350
59
  3
D0
350
5A
  3
D1
350
5B
  3
D2
350
5C
  0
DICTIONARY
  5
9E
102
{ACAD_REACTORS
330
C
102
}
330
C
100
AcDbDictionary
281
     1
  0
DICTIONARY
  5
2A
102
{ACAD_REACTORS
330
C
102
}
330
C
100
AcDbDictionary
281
     1
  3
2dWireframe
350
2F
  3
3D Hidden
350
31
  3
3dWireframe
350
30
  3
Basic
350
32
  3
Brighten
350
36
  3
ColorChange
350
3A
  3
Conceptual
350
34
  3
Dim
350
35
  3
Facepattern
350
39
  3
Flat
350
2B
  3
FlatWithEdges
350
2C
  3
Gouraud
350
2D
  3
GouraudWithEdges
350
2E
  3
Linepattern
350
38
  3
Realistic
350
33
  3
Thicken
350
37
  0
LAYOUT
  5
1E
102
{ACAD_REACTORS
330
1A
102
}
330
1A
100
AcDbPlotSettings
  1

  2
none_device
  4

  6

 40
0.0
 41
0.0
 42
0.0
 43
0.0
 44
0.0
 45
0.0
 46
0.0
 47
0.0
 48
0.0
 49
0.0
140
0.0
141
0.0
142
1.0
143
1.0
 70
   688
 72
     0
 73
     0
 74
     5
  7

 75
    16
 76
     0
 77
     2
 78
   300
147
1.0
148
0.0
149
0.0
100
AcDbLayout
  1
Layout1
 70
     1
 71
     1
 10
0.0
 20
0.0
 11
12.0
 21
9.0
 12
0.0
 22
0.0
 32
0.0
 14
1.000000000000000E+20
 24
1.000000000000000E+20
 34
1.000000000000000E+20
 15
-1.000000000000000E+20
 25
-1.000000000000000E+20
 35
-1.000000000000000E+20
146
0.0
 13
0.0
 23
0.0
 33
0.0
 16
1.0
 26
0.0
 36
0.0
 17
0.0
 27
1.0
 37
0.0
 76
     0
330
1B
  0
LAYOUT
  5
26
102
{ACAD_REACTORS
330
1A
102
}
330
1A
100
AcDbPlotSettings
  1

  2
none_device
  4

  6

 40
0.0
 41
0.0
 42
0.0
 43
0.0
 44
0.0
 45
0.0
 46
0.0
 47
0.0
 48
0.0
 49
0.0
140
0.0
141
0.0
142
1.0
143
1.0
 70
   688
 72
     0
 73
     0
 74
     5
  7

 75
    16
 76
     0
 77
     2
 78
   300
147
1.0
148
0.0
149
0.0
100
AcDbLayout
  1
Layout2
 70
     1
 71
     2
 10
0.0
 20
0.0
 11
0.0
 21
0.0
 12
0.0
 22
0.0
 32
0.0
 14
0.0
 24
0.0
 34
0.0
 15
0.0
 25
0.0
 35
0.0
146
0.0
 13
0.0
 23
0.0
 33
0.0
 16
1.0
 26
0.0
 36
0.0
 17
0.0
 27
1.0
 37
0.0
 76
     0
330
23
  0
LAYOUT
  5
22
102
{ACAD_REACTORS
330
1A
102
}
330
1A
100
AcDbPlotSettings
  1

  2
none_device
  4

  6

 40
0.0
 41
0.0
 42
0.0
 43
0.0
 44
0.0
 45
0.0
 46
0.0
 47
0.0
 48
0.0
 49
0.0
140
0.0
141
0.0
142
1.0
143
1.0
 70
  1712
 72
     0
 73
     0
 74
     0
  7

 75
     0
 76
     0
 77
     2
 78
   300
147
1.0
148
0.0
149
0.0
100
AcDbLayout
  1
Model
 70
     1
 71
     0
 10
0.0
 20
0.0
 11
12.0
 21
9.0
 12
0.0
 22
0.0
 32
0.0
 14
-927.9778
 24
-549.4181
 34
0.0
 15
882.9584
 25
756.9829
 35
0.0
146
0.0
 13
0.0
 23
0.0
 33
0.0
 16
1.0
 26
0.0
 36
0.0
 17
0.0
 27
1.0
 37
0.0
 76
     0
330
1F
331
29
  0
MLINESTYLE
  5
18
102
{ACAD_REACTORS
330
17
102
}
330
17
100
AcDbMlineStyle
  2
Standard
 70
     0
  3

 62
   256
 51
90.0
 52
90.0
 71
     2
 49
0.5
 62
   256
  6
BYLAYER
 49
-0.5
 62
   256
  6
BYLAYER
  0
ACDBPLACEHOLDER
  5
F
102
{ACAD_REACTORS
330
E
102
}
330
E
  0
SCALE
  5
3C
102
{ACAD_REACTORS
330
3B
102
}
330
3B
100
AcDbScale
 70
     0
300
1:1
140
1.0
141
1.0
290
     1
  0
SCALE
  5
3D
102
{ACAD_REACTORS
330
3B
102
}
330
3B
100
AcDbScale
 70
     0
300
1:2
140
1.0
141
2.0
290
     0
  0
SCALE
  5
3E
102
{ACAD_REACTORS
330
3B
102
}
330
3B
100
AcDbScale
 70
     0
300
1:4
140
1.0
141
4.0
290
     0
  0
SCALE
  5
3F
102
{ACAD_REACTORS
330
3B
102
}
330
3B
100
AcDbScale
 70
     0
300
1:5
140
1.0
141
5.0
290
     0
  0
SCALE
  5
40
102
{ACAD_REACTORS
330
3B
102
}
330
3B
100
AcDbScale
 70
     0
300
1:8
140
1.0
141
8.0
290
     0
  0
SCALE
  5
41
102
{ACAD_REACTORS
330
3B
102
}
330
3B
100
AcDbScale
 70
     0
300
1:10
140
1.0
141
10.0
290
     0
  0
SCALE
  5
42
102
{ACAD_REACTORS
330
3B
102
}
330
3B
100
AcDbScale
 70
     0
300
1:16
140
1.0
141
16.0
290
     0
  0
SCALE
  5
43
102
{ACAD_REACTORS
330
3B
102
}
330
3B
100
AcDbScale
 70
     0
300
1:20
140
1.0
141
20.0
290
     0
  0
SCALE
  5
44
102
{ACAD_REACTORS
330
3B
102
}
330
3B
100
AcDbScale
 70
     0
300
1:30
140
1.0
141
30.0
290
     0
  0
SCALE
  5
45
102
{ACAD_REACTORS
330
3B
102
}
330
3B
100
AcDbScale
 70
     0
300
1:40
140
1.0
141
40.0
290
     0
  0
SCALE
  5
46
102
{ACAD_REACTORS
330
3B
102
}
330
3B
100
AcDbScale
 70
     0
300
1:50
140
1.0
141
50.0
290
     0
  0
SCALE
  5
47
102
{ACAD_REACTORS
330
3B
102
}
330
3B
100
AcDbScale
 70
     0
300
1:100
140
1.0
141
100.0
290
     0
  0
SCALE
  5
48
102
{ACAD_REACTORS
330
3B
102
}
330
3B
100
AcDbScale
 70
     0
300
2:1
140
2.0
141
1.0
290
     0
  0
SCALE
  5
49
102
{ACAD_REACTORS
330
3B
102
}
330
3B
100
AcDbScale
 70
     0
300
4:1
140
4.0
141
1.0
290
     0
  0
SCALE
  5
4A
102
{ACAD_REACTORS
330
3B
102
}
330
3B
100
AcDbScale
 70
     0
300
8:1
140
8.0
141
1.0
290
     0
  0
SCALE
  5
4B
102
{ACAD_REACTORS
330
3B
102
}
330
3B
100
AcDbScale
 70
     0
300
10:1
140
10.0
141
1.0
290
     0
  0
SCALE
  5
4C
102
{ACAD_REACTORS
330
3B
102
}
330
3B
100
AcDbScale
 70
     0
300
100:1
140
100.0
141
1.0
290
     0
  0
SCALE
  5
4D
102
{ACAD_REACTORS
330
3B
102
}
330
3B
100
AcDbScale
 70
     0
300
1/128" = 1'-0"
140
0.0078125
141
12.0
290
     0
  0
SCALE
  5
4E
102
{ACAD_REACTORS
330
3B
102
}
330
3B
100
AcDbScale
 70
     0
300
1/64" = 1'-0"
140
0.015625
141
12.0
290
     0
  0
SCALE
  5
4F
102
{ACAD_REACTORS
330
3B
102
}
330
3B
100
AcDbScale
 70
     0
300
1/32" = 1'-0"
140
0.03125
141
12.0
290
     0
  0
SCALE
  5
50
102
{ACAD_REACTORS
330
3B
102
}
330
3B
100
AcDbScale
 70
     0
300
1/16" = 1'-0"
140
0.0625
141
12.0
290
     0
  0
SCALE
  5
51
102
{ACAD_REACTORS
330
3B
102
}
330
3B
100
AcDbScale
 70
     0
300
3/32" = 1'-0"
140
0.09375
141
12.0
290
     0
  0
SCALE
  5
52
102
{ACAD_REACTORS
330
3B
102
}
330
3B
100
AcDbScale
 70
     0
300
1/8" = 1'-0"
140
0.125
141
12.0
290
     0
  0
SCALE
  5
53
102
{ACAD_REACTORS
330
3B
102
}
330
3B
100
AcDbScale
 70
     0
300
3/16" = 1'-0"
140
0.1875
141
12.0
290
     0
  0
SCALE
  5
54
102
{ACAD_REACTORS
330
3B
102
}
330
3B
100
AcDbScale
 70
     0
300
1/4" = 1'-0"
140
0.25
141
12.0
290
     0
  0
SCALE
  5
55
102
{ACAD_REACTORS
330
3B
102
}
330
3B
100
AcDbScale
 70
     0
300
3/8" = 1'-0"
140
0.375
141
12.0
290
     0
  0
SCALE
  5
56
102
{ACAD_REACTORS
330
3B
102
}
330
3B
100
AcDbScale
 70
     0
300
1/2" = 1'-0"
140
0.5
141
12.0
290
     0
  0
SCALE
  5
57
102
{ACAD_REACTORS
330
3B
102
}
330
3B
100
AcDbScale
 70
     0
300
3/4" = 1'-0"
140
0.75
141
12.0
290
     0
  0
SCALE
  5
58
102
{ACAD_REACTORS
330
3B
102
}
330
3B
100
AcDbScale
 70
     0
300
1" = 1'-0"
140
1.0
141
12.0
290
     0
  0
SCALE
  5
59
102
{ACAD_REACTORS
330
3B
102
}
330
3B
100
AcDbScale
 70
     0
300
1-1/2" = 1'-0"
140
1.5
141
12.0
290
     0
  0
SCALE
  5
5A
102
{ACAD_REACTORS
330
3B
102
}
330
3B
100
AcDbScale
 70
     0
300
3" = 1'-0"
140
3.0
141
12.0
290
     0
  0
SCALE
  5
5B
102
{ACAD_REACTORS
330
3B
102
}
330
3B
100
AcDbScale
 70
     0
300
6" = 1'-0"
140
6.0
141
12.0
290
     0
  0
SCALE
  5
5C
102
{ACAD_REACTORS
330
3B
102
}
330
3B
100
AcDbScale
 70
     0
300
1'-0" = 1'-0"
140
12.0
141
12.0
290
     0
  0
VISUALSTYLE
  5
2F
102
{ACAD_REACTORS
330
2A
102
}
330
2A
100
AcDbVisualStyle
  2
2dWireframe
 70
     4
 71
     0
 72
     2
 73
     0
 90
        0
 40
-0.6
 41
-30.0
 62
     5
 63
     7
421
 16777215
 74
     1
 91
        4
 64
     7
 65
   257
 75
     1
175
     1
 42
1.0
 92
        0
 66
   257
 43
1.0
 76
     1
 77
     6
 78
     2
 67
     7
 79
     5
170
     0
171
     0
290
     0
174
     0
 93
        1
 44
0.0
173
     0
291
     0
 45
0.0
1001
ACAD
1000
AcDbSavedByObjectVersion
1070
     0
  0
VISUALSTYLE
  5
31
102
{ACAD_REACTORS
330
2A
102
}
330
2A
100
AcDbVisualStyle
  2
3D Hidden
 70
     6
 71
     1
 72
     2
 73
     2
 90
        0
 40
-0.6
 41
-30.0
 62
     5
 63
     7
421
 16777215
 74
     2
 91
        2
 64
     7
 65
   257
 75
     2
175
     1
 42
40.0
 92
        0
 66
   257
 43
1.0
 76
     1
 77
     6
 78
     2
 67
     7
 79
     3
170
     0
171
     0
290
     0
174
     0
 93
        1
 44
0.0
173
     0
291
     0
 45
0.0
1001
ACAD
1000
AcDbSavedByObjectVersion
1070
     0
  0
VISUALSTYLE
  5
30
102
{ACAD_REACTORS
330
2A
102
}
330
2A
100
AcDbVisualStyle
  2
3dWireframe
 70
     5
 71
     0
 72
     2
 73
     0
 90
        0
 40
-0.6
 41
-30.0
 62
     5
 63
     7
421
 16777215
 74
     1
 91
        4
 64
     7
 65
   257
 75
     1
175
     1
 42
1.0
 92
        0
 66
   257
 43
1.0
 76
     1
 77
     6
 78
     2
 67
     7
 79
     5
170
     0
171
     0
290
     0
174
     0
 93
        1
 44
0.0
173
     0
291
     0
 45
0.0
1001
ACAD
1000
AcDbSavedByObjectVersion
1070
     0
  0
VISUALSTYLE
  5
32
102
{ACAD_REACTORS
330
2A
102
}
330
2A
100
AcDbVisualStyle
  2
Basic
 70
     7
 71
     1
 72
     0
 73
     1
 90
        0
 40
-0.6
 41
-30.0
 62
     5
 63
     7
421
 16777215
 74
     0
 91
        4
 64
     7
 65
   257
 75
     1
175
     1
 42
1.0
 92
        8
 66
     7
 43
1.0
 76
     1
 77
     6
 78
     2
 67
     7
 79
     5
170
     0
171
     0
290
     0
174
     0
 93
        1
 44
0.0
173
     0
291
     1
 45
0.0
1001
ACAD
1000
AcDbSavedByObjectVersion
1070
     0
  0
VISUALSTYLE
  5
36
102
{ACAD_REACTORS
330
2A
102
}
330
2A
100
AcDbVisualStyle
  2
Brighten
 70
    12
 71
     2
 72
     2
 73
     0
 90
        0
 40
-0.6
 41
-30.0
 62
     5
 63
     7
421
 16777215
 74
     1
 91
        4
 64
     7
 65
   257
 75
     1
175
     1
 42
1.0
 92
        8
 66
     7
 43
1.0
 76
     1
 77
     6
 78
     2
 67
     7
 79
     5
170
     0
171
     0
290
     0
174
     0
 93
        1
 44
50.0
173
     0
291
     1
 45
0.0
1001
ACAD
1000
AcDbSavedByObjectVersion
1070
     0
  0
VISUALSTYLE
  5
3A
102
{ACAD_REACTORS
330
2A
102
}
330
2A
100
AcDbVisualStyle
  2
ColorChange
 70
    16
 71
     2
 72
     2
 73
     3
 90
        0
 40
-0.6
 41
-30.0
 62
     5
 63
     8
421
  8421504
 74
     1
 91
        4
 64
     7
 65
   257
 75
     1
175
     1
 42
1.0
 92
        8
 66
     8
424
  8421504
 43
1.0
 76
     1
 77
     6
 78
     2
 67
     7
 79
     5
170
     0
171
     0
290
     0
174
     0
 93
        1
 44
0.0
173
     0
291
     1
 45
0.0
1001
ACAD
1000
AcDbSavedByObjectVersion
1070
     0
  0
VISUALSTYLE
  5
34
102
{ACAD_REACTORS
330
2A
102
}
330
2A
100
AcDbVisualStyle
  2
Conceptual
 70
     9
 71
     3
 72
     2
 73
     0
 90
        0
 40
-0.6
 41
-30.0
 62
     5
 63
     7
421
 16777215
 74
     2
 91
        2
 64
     7
 65
   257
 75
     1
175
     1
 42
40.0
 92
        8
 66
     7
 43
1.0
 76
     1
 77
     6
 78
     2
 67
     7
 79
     3
170
     0
171
     0
290
     0
174
     0
 93
        1
 44
0.0
173
     0
291
     0
 45
0.0
1001
ACAD
1000
AcDbSavedByObjectVersion
1070
     0
  0
VISUALSTYLE
  5
35
102
{ACAD_REACTORS
330
2A
102
}
330
2A
100
AcDbVisualStyle
  2
Dim
 70
    11
 71
     2
 72
     2
 73
     0
 90
        0
 40
-0.6
 41
-30.0
 62
     5
 63
     7
421
 16777215
 74
     1
 91
        4
 64
     7
 65
   257
 75
     1
175
     1
 42
1.0
 92
        8
 66
     7
 43
1.0
 76
     1
 77
     6
 78
     2
 67
     7
 79
     5
170
     0
171
     0
290
     0
174
     0
 93
        1
 44
-50.0
173
     0
291
     1
 45
0.0
1001
ACAD
1000
AcDbSavedByObjectVersion
1070
     0
  0
VISUALSTYLE
  5
39
102
{ACAD_REACTORS
330
2A
102
}
330
2A
100
AcDbVisualStyle
  2
Facepattern
 70
    15
 71
     2
 72
     2
 73
     0
 90
        0
 40
-0.6
 41
-30.0
 62
     5
 63
     7
421
 16777215
 74
     1
 91
        4
 64
     7
 65
   257
 75
     1
175
     1
 42
1.0
 92
        8
 66
     7
 43
1.0
 76
     1
 77
     6
 78
     2
 67
     7
 79
     5
170
     0
171
     0
290
     0
174
     0
 93
        1
 44
0.0
173
     0
291
     1
 45
0.0
1001
ACAD
1000
AcDbSavedByObjectVersion
1070
     0
  0
VISUALSTYLE
  5
2B
102
{ACAD_REACTORS
330
2A
102
}
330
2A
100
AcDbVisualStyle
  2
Flat
 70
     0
 71
     2
 72
     1
 73
     1
 90
        2
 40
-0.6
 41
30.0
 62
     5
 63
     7
421
 16777215
 74
     0
 91
        4
 64
     7
 65
   257
 75
     1
175
     1
 42
1.0
 92
        8
 66
     7
 43
1.0
 76
     1
 77
     6
 78
     2
 67
     7
 79
     5
170
     0
171
     0
290
     0
174
     0
 93
       13
 44
0.0
173
     0
291
     1
 45
0.0
1001
ACAD
1000
AcDbSavedByObjectVersion
1070
     0
  0
VISUALSTYLE
  5
2C
102
{ACAD_REACTORS
330
2A
102
}
330
2A
100
AcDbVisualStyle
  2
FlatWithEdges
 70
     1
 71
     2
 72
     1
 73
     1
 90
        2
 40
-0.6
 41
30.0
 62
     5
 63
     7
421
 16777215
 74
     1
 91
        4
 64
     7
 65
   257
 75
     1
175
     1
 42
1.0
 92
        0
 66
   257
 43
1.0
 76
     1
 77
     6
 78
     2
 67
     7
 79
     5
170
     0
171
     0
290
     0
174
     0
 93
       13
 44
0.0
173
     0
291
     1
 45
0.0
1001
ACAD
1000
AcDbSavedByObjectVersion
1070
     0
  0
VISUALSTYLE
  5
2D
102
{ACAD_REACTORS
330
2A
102
}
330
2A
100
AcDbVisualStyle
  2
Gouraud
 70
     2
 71
     2
 72
     2
 73
     1
 90
        2
 40
-0.6
 41
30.0
 62
     5
 63
     7
421
 16777215
 74
     0
 91
        4
 64
     7
 65
   257
 75
     1
175
     1
 42
1.0
 92
        0
 66
     7
 43
1.0
 76
     1
 77
     6
 78
     2
 67
     7
 79
     5
170
     0
171
     0
290
     0
174
     0
 93
       13
 44
0.0
173
     0
291
     1
 45
0.0
1001
ACAD
1000
AcDbSavedByObjectVersion
1070
     0
  0
VISUALSTYLE
  5
2E
102
{ACAD_REACTORS
330
2A
102
}
330
2A
100
AcDbVisualStyle
  2
GouraudWithEdges
 70
     3
 71
     2
 72
     2
 73
     1
 90
        2
 40
-0.6
 41
30.0
 62
     5
 63
     7
421
 16777215
 74
     1
 91
        4
 64
     7
 65
   257
 75
     1
175
     1
 42
1.0
 92
        0
 66
   257
 43
1.0
 76
     1
 77
     6
 78
     2
 67
     7
 79
     5
170
     0
171
     0
290
     0
174
     0
 93
       13
 44
0.0
173
     0
291
     1
 45
0.0
1001
ACAD
1000
AcDbSavedByObjectVersion
1070
     0
  0
VISUALSTYLE
  5
38
102
{ACAD_REACTORS
330
2A
102
}
330
2A
100
AcDbVisualStyle
  2
Linepattern
 70
    14
 71
     2
 72
     2
 73
     0
 90
        0
 40
-0.6
 41
-30.0
 62
     5
 63
     7
421
 16777215
 74
     1
 91
        4
 64
     7
 65
   257
 75
     7
175
     7
 42
1.0
 92
        8
 66
     7
 43
1.0
 76
     1
 77
     6
 78
     2
 67
     7
 79
     5
170
     0
171
     0
290
     0
174
     0
 93
        1
 44
0.0
173
     0
291
     1
 45
0.0
1001
ACAD
1000
AcDbSavedByObjectVersion
1070
     0
  0
VISUALSTYLE
  5
33
102
{ACAD_REACTORS
330
2A
102
}
330
2A
100
AcDbVisualStyle
  2
Realistic
 70
     8
 71
     2
 72
     2
 73
     0
 90
        0
 40
-0.6
 41
-30.0
 62
     5
 63
     7
421
 16777215
 74
     1
 91
        0
 64
     7
 65
   257
 75
     1
175
     1
 42
1.0
 92
        8
 66
     8
424
  7895160
 43
1.0
 76
     1
 77
     6
 78
     2
 67
     7
 79
     5
170
     0
171
     0
290
     0
174
     0
 93
       13
 44
0.0
173
     0
291
     0
 45
0.0
1001
ACAD
1000
AcDbSavedByObjectVersion
1070
     0
  0
VISUALSTYLE
  5
37
102
{ACAD_REACTORS
330
2A
102
}
330
2A
100
AcDbVisualStyle
  2
Thicken
 70
    13
 71
     2
 72
     2
 73
     0
 90
        0
 40
-0.6
 41
-30.0
 62
     5
 63
     7
421
 16777215
 74
     1
 91
        4
 64
     7
 65
   257
 75
     1
175
     1
 42
1.0
 92
       12
 66
     7
 43
1.0
 76
     1
 77
     6
 78
     2
 67
     7
 79
     5
170
     0
171
     0
290
     0
174
     0
 93
        1
 44
0.0
173
     0
291
     1
 45
0.0
1001
ACAD
1000
AcDbSavedByObjectVersion
1070
     0
  0
ENDSEC
  0
EOF
